Song name
# A B C D E F G H I J K L M N O P Q R S T U V W X Y Z

Simple Plan - Welcome To My Life tab

is a mine modification of a tab here on ultimate guitar...
i hope you like it!!


1st Verse x2 ..guitar 1(acoustic) starts off guitar 2 kicks in the 2nd time
e|--------------------------------------------------------|
B|--------------------------------------------------------|
G|-6--6--6-6----------------------------------------------|
D|-6--6--6-6---8--8--8-8---4--4--4-4---6--6--6-6----------|
A|-4--4--4-4---8--8--8-8---4--4--4-4---6--6--6-6----------|
E|-------------6--6--6-6---2--2--2-2---4--4--4-4----------|
Verse1:
Do you ever feel like breaking down
Do you ever feel out of place
Like somehow you just don't belong
And no one understands you
Do you ever wanna run away
Do you lock yourself in your room
With the radio on turned up so loud
But no one hears you screaming

Pre-Chourus (both guitars)
e|--------------------------------------------------|
B|--------------------------------------------------|
G|-6------------------------------------------------|
D|-6-x8--8------4--------6~-------------------------|
A|-4-----8--x8--4--x8--s-6~-------------------------|
E|-------6------2--------4~-------------------------|
Pre-Chorus:
No you don't know what it's like
When nothing feels alright
You don't know what it's like to be like me...


Chorus (guitar 1)
e|--------------------------------------------------|
B|--------------------------------------------------|
G|---6--------------6xxx---------6------------------|X2
D|-6-6--8xxx--4xxx--6xxx-6xxx--6-6------------------|
A|-6-4--8xxx--4xxx--4xxx-6xxx--6-4------------------|
E|-4----6xxx--2xxx-------4xxx--4--------------------|


then (Continued Guitar 1)
e|---------------------------------------------------|
B|---------------------------------------------------|
G|-------------6666----------------------------------|
D|-8888--4444--6666--6666---------44444444---6~------|
A|-8888--4444--4444--6666---------44444444-s-6~------|
E|-6666--2222--------4444---------22222222---4~------|


pre-verse (guitar 1)
e|----------------------------------------------------------------------|
B|----------------------------------------------------------------------|
G|--6-6-6-6-------------------------------------------------------------|
D|--6-6-6-6-------------------------------------------------------------|
A|--4-4-4-4-------------------------------------------------------------|
E|----------------------------------------------------------------------|

Chorus:
To be hurt
To be lost
To be left out in the dark
To be kicked
when your down
And feel like you've been pushed around
To be on the edge of breaking down
And no one's there to save you
No you don't know what it's like
...Welcome to My Life

e|--------------------------------------------------------|
B|--------------------------------------------------------|
G|-6--6--6-6----------------------------------------------|x2
D|-6--6--6-6---8--8--8-8---4--4--4-4---6--6--6-6----------|
A|-4--4--4-4---8--8--8-8---4--4--4-4---6--6--6-6----------|
E|-------------6--6--6-6---2--2--2-2---4--4--4-4----------|
Verse2:
Do you wanna be somebody else
Are you sick of feeling so left out
Are you desperate you find something more
Before your life is over
Are you stuck inside a world you hate
Are you sick of everyone around
With they're big fake smiles and stupid lies
While deep inside your bleeding

Pre-Chourus
e|--------------------------------------------------|
B|--------------------------------------------------|
G|-6------------------------------------------------|
D|-6-x8--8------4--------6~-------------------------|
A|-4-----8--x8--4--x8--s-6~-------------------------|
E|-------6------2--------4~-------------------------|

Chorus (guitar 1)
e|--------------------------------------------------|
B|--------------------------------------------------|
G|---6--------------6xxx---------6------------------|X2
D|-6-6--8xxx--4xxx--6xxx-6xxx--6-6------------------|
A|-6-4--8xxx--4xxx--4xxx-6xxx--6-4------------------|
E|-4----6xxx--2xxx-------4xxx--4--------------------|

then (Continued Guitar 1)
e|---------------------------------------------------|
B|---------------------------------------------------|
G|-------------6666----------------------------------|
D|-8888--4444--6666--6666---------44444444---6~------|
A|-8888--4444--4444--6666---------44444444-s-6~------|
E|-6666--2222--------4444---------22222222---4~------|

pre-verse (guitar 1)
pre-verse (guitar 1)
e|-----------|
B|-----------|
G|--6-6-6-6--|
D|--6-6-6-6--|
A|--4-4-4-4--|
E|-----------|
e|-----------|
B|-----------|
G|--6-6-6-6--|
D|--6-6-6-6--|
A|--4-4-4-4--|
E|-----------|


bridge (both guitars)
e|-----------------------------------------------------------------|
B|-----------------------------------------------------------------|
G|---------------6----------------6---------------6666-------------|
D|-44xx--44xx--6-6--88xx--88xx--6-6--44xx-44xx--6-6666-6666--------|
A|-44xx--44xx--6-4--88xx--88xx--6-4--44xx-44xx--6-4444-6666--------|
E|-22xx--22xx--4----66xx--66xx--4----22xx-22xx--4------4444--------|

bridge (continued)
e|--------------------------------------------------|
B|--------------------------------------------------|
G|---------6----------6-----------------------------|
D|-44xx--6-6--88xx--6-6---66666666---4~-------------|
A|-44xx--6-4--88xx--6-4---66666666-s-4~-------------|
E|-22xx--4----66xx--4-----44444444---2~-------------|

Bridge:
No one ever lied strait to your face
And no one ever stabbed you in the back
You might think I'm happy but I'm not gonna be okay
Everybody always gave you what you wanted
You never had to work it was always there
You don't know what it's like...what it's like

Chorus x2
then (Continued Guitar 1)
e|---------------------------------------------------|
B|---------------------------------------------------|
G|-------------6666----------------------------------|
D|-8888--4444--6666--6666---------44444444---6~------|
A|-8888--4444--4444--6666---------44444444-s-6~------|
E|-6666--2222--------4444---------22222222---4~------|then (Continued Guitar 1)

e|---------------------------------------------------|
B|---------------------------------------------------|
G|-------------6666----------------------------------|
D|-8888--4444--6666--6666---------44444444---6~------|
A|-8888--4444--4444--6666---------44444444-s-6~------|
E|-6666--2222--------4444---------22222222---4~------|

e|-----------|
B|-----------|
G|--6-6-6-6--|
D|--6-6-6-6--|
A|--4-4-4-4--|
E|-----------|

e|-----------|
B|-----------|
G|--6-6-6-6--|
D|--6-6-6-6--|
A|--4-4-4-4--|
E|-----------|
Welcome to My Life....Welcome to My Life
Tap to rate this tab
 
# A B C D E F G H I J K L M N O P Q R S T U V W X Y Z