Simple Plan - Your Love Is A Lie tab

Band           :Simple Plan
Song           :Your Love Is A Lie
Album          :Simple Plan
Type           :Guitar Tab
What Part      :Intro
Tab Difficulty :Intermediate
Tuning         :Standard

This is pretty, accurate, I hope you like it!

Chords Used:
  Em   G   D   A
e|-0---3---2---0---|
B|-0---3---3---2---|
G|-0---0---2---2---|
D|-2---0---0---2---|
A|-2---2---0---0---|
E|-0---3---0---0---|

Intro:
        Em               G           D            A
e|---------0-------|---------|---------------|---------|
B|-------0---0---0-|-------3-|-------3---3---|-------2-|
G|-----0-------0---|-----0---|-----2---2---2-|-----2---| (2x)
D|---2-------------|---0-----|---0-----------|---2-----|
A|-----------------|---------|-0-------------|-0-------|
E|-0---------------|-3-------|---------------|---------|

(Which Strings To Pluck - While Fingering a Chord)

Em - 6 4 3 2 1 2 3 2
G  - 6 4 3 2
D  - 5 4 3 2 3 2 3
A  - 5 4 3 2 

6 = E
5 = A
4 = D
3 = G
2 = B
1 = e
Tap to rate this tab
 
# A B C D E F G H I J K L M N O P Q R S T U V W X Y Z