Song name
# A B C D E F G H I J K L M N O P Q R S T U V W X Y Z

Simple Plan - Perpect tab

Intro:
e|--------------------------------------------------------------------
B|---------------------------------------------^--^-------------------
G|-8-7-8-----------8-7-8-10-----------8-10-13-12-12-13-12-------------
D|-8-8-8---6-5-----8-8-8-8---6-5--------------------------------------
A|-5-5-5---6-6-6---6-6-6-6---6-6-6------------------------------------
E|---------4-4-4-1-----------4-4-4-1----------------------------------

Verse 1                        Pre-chorus: "I try hard to make it...."
e|-----------------------------1--6-----------------------------------
B|-----------------------------1--8-----------------------------------
G|-8-7-8---------8-7-8---------5--8-----------------------------------
D|-8-8-8--6-6-6--8-8-8--6-6-6--6--8-----------------------------------
A|-6-6-6--6-6-6--6-6-6--6-6-6--6--6-----------------------------------
E|--------4-4-4---------4-4-4--4--------------------------------------

Chorus: "Now we lost it all..."
e|--------------------------------------------------------------------
B|--------------------------------------------------------------------
G|-8-----5------------------------------------------------------------
D|-8--8--5--6---------------------------------------------------------
A|-6--8--3--6-------------------------------------------------- ------
E|----6-----4---------------------------------------------------------

Bridge: "Nothings gonna change the things that you said..."
e|--------------------------------------------------------------------
B|--------------------------------------------------------------------
G|-5--------- 5--------- 5--------------------------------------------
D|-5--8--6----5--8  6----5---8----6-----------------------------------
A|-3--8--6----3--8  6----3---8----6-----------------------------------
E|----6--4-------6--4--------6----4-----------------------------------

Tap to rate this tab
 
# A B C D E F G H I J K L M N O P Q R S T U V W X Y Z