Song name
# A B C D E F G H I J K L M N O P Q R S T U V W X Y Z

Simple Plan - Untitled tab

this is my very first tab

Capo 2nd Fret

Intro 

e|-----------------------------------------------------|
B|---------7--9---------7--9---------7--9---------7--9-|
G|-----9------------9------------9------------9--------|
D|---9---9--------9---9--------9---9--------9---9------| 
A|-7------------7------------7------------7------------|
E|-----------------------------------------------------|

Verse 

e|-----------------------------------------------------|
B|---------4--5---------4--5---------7--9---------7--9-|
G|-----6------------6------------9------------9--------|
D|---6---6--------6---6--------9---9--------9---9------|
A|-4------------4------------7------------7------------|
E|-----------------------------------------------------|

e|-----------------------------------------------------|
B|---------4--5---------4--5---------7--9---------2--4-|
G|-----6------------6------------9------------4--------|
D|---6---6--------6---6--------9---9--------4---4------|
A|-4------------4------------7------------2------------|
E|-----------------------------------------------------|

Pre-chorus 

e|-----------------------------------------------------|
B|---------0--2---------2--4---------4--5---------7--9-|
G|-----2------------4------------6------------9--------|
D|---2---2--------4---4--------6---6--------9---9------|
A|-0------------2------------4------------7------------|
E|-----------------------------------------------------|
 
e|----------------------------------------|
B|---------0--2---------2--4---------2--4-|
G|-----2------------4------------4--------|
D|---2---2--------4---4--------4---4------|
A|-0------------2------------2------------|
E|----------------------------------------|

Chorus x2

e|-----------------------------------------------------|
B|---------7--9---------4--5---------0--2---------2--4-|
G|-----9------------6------------2------------4--------|
D|---9---9--------6---6--------2---2--------4---4------| 
A|-7------------4------------0------------2------------|
E|-----------------------------------------------------|

Intro 

e|---------------------------|
B|---------7--9---------7--9-|
G|-----9------------9--------|
D|---9---9--------9---9------| 
A|-7------------7------------|
E|---------------------------|

Verse 

e|-----------------------------------------------------|
B|---------4--5---------4--5---------7--9---------7--9-|
G|-----6------------6------------9------------9--------|
D|---6---6--------6---6--------9---9--------9---9------|
A|-4------------4------------7------------7------------|
E|-----------------------------------------------------|

e|-----------------------------------------------------|
B|---------4--5---------4--5---------7--9---------2--4-|
G|-----6------------6------------9------------4--------|
D|---6---6--------6---6--------9---9--------4---4------|
A|-4------------4------------7------------2------------|
E|-----------------------------------------------------|

Pre-chorus 

e|-----------------------------------------------------|
B|---------0--2---------2--4---------4--5---------7--9-|
G|-----2------------4------------6------------9--------|
D|---2---2--------4---4--------6---6--------9---9------|
A|-0------------2------------4------------7------------|
E|-----------------------------------------------------|

e|-----------------------------------------------------|
B|---------0--2---------2--4---------4--5---------7--9-|
G|-----2------------4------------6------------9--------|
D|---2---2--------4---4--------6---6--------9---9------|
A|-0------------2------------4------------7------------|
E|-----------------------------------------------------|
 
e|-----------------------------------------------------|
B|---------0--2---------0--2---------2--4---------2--4-|
G|-----2------------2------------4------------4--------|
D|---2---2--------2---2--------4---4--------4---4------|
A|-0------------0------------2------------2------------|
E|-----------------------------------------------------|

Chorus x2

e|-----------------------------------------------------|
B|---------7--9---------4--5---------0--2---------2--4-|
G|-----9------------6------------2------------4--------|
D|---9---9--------6---6--------2---2--------4---4------| 
A|-7------------4------------0------------2------------|
E|-----------------------------------------------------|

[INSTRUMENTAL SOLO]

After the solo:

e|-----------------------------------------------------|
B|---------4--5---------4--5---------4--5---------4--5-|
G|-----6------------6------------6------------6--------|
D|---6---6--------6---6--------6---6--------6---6------|
A|-4------------4------------4------------4------------|
E|-----------------------------------------------------|

Chorus x2

e|-----------------------------------------------------|
B|---------7--9---------4--5---------0--2---------2--4-|
G|-----9------------6------------2------------4--------|
D|---9---9--------6---6--------2---2--------4---4------| 
A|-7------------4------------0------------2------------|
E|-----------------------------------------------------|

Lyrics:

I open my eyes
I try to see but Iím blinded by the white light
I canít remember how
I canít remember why
Iím lying here tonight

And I canít stand the pain
And I canít make it go away
No I canít stand the pain

How could this happen to me
I made my mistakes
Iíve got no where to run
The night goes on
As Iím fading away
Iím sick of this life
I just wanna scream
How could this happen to me

Everybodyís screaming
I try to make a sound but no one hears me
Iím slipping off the edge
Iím hanging by a thread
I wanna start this over again

So I try to hold onto a time when nothing mattered
And I canít explain what happened
And I canít erase the things that Iíve done
No I canít

How could this happen to me
I made my mistakes
Iíve got no where to run
The night goes on
As Iím fading away
Iím sick of this life
I just wanna scream
How could this happen to me

{SOLO}

I made my mistakes
Iíve got no where to run
The night goes on
As Iím fading away
Iím sick of this life
I just wanna scream
How could this happen to me
Tap to rate this tab
 
# A B C D E F G H I J K L M N O P Q R S T U V W X Y Z