Simple Plan - This Song Saved My Life tab

From The New Simple PLan record "Get You Heart On"!!
one of the beautiful songs out there.
check out this tab to play along. :) feel free to rate and comment please :)


Intro:

e|-----------2---------------2--------------2------0--------|
B|---------------3-~------3-----3--~------3-------------2---|
G|---------4------------0---------------2-------------2-----|
D|------4----------------------------0--------------2-------|
A|---2------------------------------------------------------|
E|--------------------3-------------------------------------|

verse:
      I want to start by.......        because of you...
e|-----------0------0------0-------------------0------0-------0-----------|
B|------3-------3------3--------3---------3-------3------3-------3--------|
G|--------2-------2------2--------2----------2------2------2-------2------|
D|----0-------------------------------------------------------------------|
A|------------------------------------------------------------------------|
E|--------------------------------------3---------------------------------|

continue:

e|-----------0--------------------0-------------------0---------3--2-----0--|
B|------3---------3---------3---------3----------3--------3-----------3-----|
G|--------2---------2----------2--------2----------2---------2--------------|
D|--------------------------------------------------------------------------|
A|----2------------------0--------------------------------------------------|
E|--------------------------------------------3-----------------------------|

then chours:
       broken..        ...lost..
e|-----------------------------------------|
B|----3------------------------------------|
G|----4----------4--------7----------------|
D|----4---x8-----5--------7--x8-----7------|    x2
A|----2----------5--x8----5---------7--x8--|
E|---------------3------------------5------|

the next part just to the same chord but stop after 4 times on each cohrd.

chous outro:
.............this song...
e|---------------------------|
B|--------------------------|
G|--------------------------|
D|----5------------7--------|
A|----5---x8-------7---x8---|
E|----3------------5--------|

thern verse same

chours same

bridge part 1 (right after the chours there is this part):

***note : do it in slowley fade  Palm Mute!!!!!****

e|---------------|
B|---------------|
G|----4----------|
D|----4--x8------|
A|----2----------|
E|------------0--|

part 2:
....Means........Me....    i'm not...Never..
e|-----------------------------------------------------|
B|-----------------------------------------------------|
G|----7-----------6--------9---------7---------9-------|
D|----7--x8-------7--------9--x8-----7--x8-----7--x8---|
A|----5-----------4--------7---------5---------4-------|
E|-----------------------------------------------------|

last part **also in palm mute**:
....be....
e|-------------|
B|-------------|
G|-------------|
D|----5--------|
A|----5--x16---|
E|----3--------|

then chours again

**the outro chords are like the bridge!!!!!***from about 2:35...
Tap to rate this tab
 
# A B C D E F G H I J K L M N O P Q R S T U V W X Y Z