Simple Plan - Jet Lag tab

-----------------------
 Jet Lag ~ Simple Plan
-----------------------
Album: Get You Heart On!   (2011)

Tabbed By: Russcool
(I know, pretty lame name)

Tuning: Half-Step Down

Tempo: About 144

Timing: 4/4

Part: Intro

Note:   L = tied note



INTRO

   Guitar 1   (Let Ring)
D#|----------------------------|--------------12------------|
A#|--13----13-12----12-13------|--13-15----15-------15------|
F#|-----12-------12-------12---|--------12-------12----12---|   x4
C#|----------------------------|----------------------------|
G#|----------------------------|----------------------------|
D#|----------------------------|----------------------------|

   Guitar 2   (Enter on Third Repeat)                                                            
D#|----------------------------|----------------------------|
A#|----------------------------|----------------------------|
F#|--5-------------------------|----------------------------|   x2
C#|--5--------5--------3-------|--3--3L-3L----3-------------|
G#|--3--------5--------3-------|--3--3L-3L----3-------------|
D#|-----------3--------1-------|--1--1L-1L----1-------------|

Tap to rate this tab
 
# A B C D E F G H I J K L M N O P Q R S T U V W X Y Z