Simple Plan - Last One Standing tab

Very interesting song from Simple Plan's newest album, Get Your Heart On. Not very 
difficult. This is my very first tab, please enjoy it!

Intro 1:

Guitar 1 and/or 2:
(Clean, Phaser/ wah effect)
|---------------------------------------------------------------------|
|---------------------------------------------------------------------|
|---------------------------------------------------------------------|
|----999999999999999999999999999999-----------------------------------|
|----777777777777777777777777777777-----------------------------------|
|---------------------------------------------------------------------|

Intro 2:

Guitar 1:
(Distortion)
|---------------------------------------------------------------------|
|---------8p0-7p0------------------------8p0-7p0----------------------|
|----------------7p0-----------------------------7p0------------------|   X2
|-------------------7p0-5p0-4h5p4-------------------7p0-5p0-4h5p4-----|
|----------------------------------5--5-------------------------------|
|---0--0--------------------------------------------------------------|

Guitar 2:
(Distortion)
|---------------------------------------------------------------------|
|---------------------------------------------------------------------|
|--------------------------5--55--555---7--77--777--------------------|   X2
|----2--2--222--222--222---5--55--555---7--77--777--------------------|
|----2--2--222--222--222---3--33--333---5--55--555--------------------|
|----0--0--000--000--000----------------------------------------------|

Verse:

Guitars 1 and 2:

|---------------------------------------------------------------------|
|---------------------------------------------------------------------|
|---------------------------------------------------------------------|   X4
|----22-222-222-222-255-555-555-555-----------------------------------|
|----22-222-222-222-255-555-555-555-----------------------------------|
|----00-000-000-000-033-333-333-333-----------------------------------|

Guitar 1:
(Palm Muted)
                                        First Ending X3  Second Ending
|--------------------------------------|----------------|-------------|
|-------88-77-----88-77----------------|----88-77-------|--555555555~-|
|---------------77---------77----------|----------------|-------------|
|--------------------------------------|----------------|-------------|
|--------------------------------------|----------------|-------------|
|--------------------------------------|----------------|-------------|
*DURING SECOND ENDING, GUITAR 2 PLAYS INTRO 1*

Chorus:

Guitars 1 and 2:
                                    X3
|-------------------------------------|-------------------------------|
|-------------------------------------|-------------------------------|
|-------------------5-55555--7-77777--|9-99999-9-99999-7-77777-7-77777|
|-2-22222--5-55555--5-55555--7-77777--|9-99999-9-99999-7-77777-7-77777|
|-2-22222--5-55555--3-33333--5-55555--|7-77777-7-77777-5-55555-5-55555|
|-0-00000--3-33333--------------------|-------------------------------|

Repeat Intro

Repeat Verse

Repeat Chorus

Bridge:

Guitar 2:

|---------------------------------------------------------------------|
|---------------------------------------------------------------------|
|---------------------------------------------------------------------|
|----2~---------------------------------------------------------------|
|----2~---------------------------------------------------------------|
|----0~---------------------------------------------------------------|

Guitar 1:
(Clean)
|---------------------------------------------------------------------|
|----5-5-5-5-5-5-5-5-5-5-5-5-5-5-5-7-7-7-7-7-7-7-7-7-7-7-7-7-7-7------|
|---------------------------------------------------------------------|
|----2-2-2-2-2-2-2-2-2-2-2-2-2-2-2-4-4-4-4-4-4-4-4-4-4-4-4-4-4-4------|
|---------------------------------------------------------------------|
|---------------------------------------------------------------------|

|---------------------------------------------------------------------|
|----8-8-8-8-8-8-8-8-8-8-8-8-8-8-8-101010101010101010101010101010-----|
|---------------------------------------------------------------------|
|----5-5-5-5-5-5-5-5-5-5-5-5-5-5-5-7-7-7-7-7-7-7-7-7-7-7-7-7-7-7------|
|---------------------------------------------------------------------|
|---------------------------------------------------------------------|

|---------------------------------------------------------------------|
|----121212121212121212121212121212131313131313131313131313131313-----|
|---------------------------------------------------------------------|
|----9-9-9-9-9-9-9-9-9-9-9-9-9-9-9-101010101010101010101010101010-----|
|---------------------------------------------------------------------|
|---------------------------------------------------------------------|

|---------------------------------------------------------------------|
|151515151515151515151515151515-17~-----------------------------------|
|---------------------------------------------------------------------|
|121212121212121212121212121212-17~-----------------------------------|
|---------------------------------------------------------------------|
|---------------------------------------------------------------------|

|---------------------------------------------------------------------|
|---------8p0-7p0------------------------8p0-7p0----------------------|
|----------------7p0-----------------------------7p0------------------|
|-------------------7p0-5p0-4h5p4-------------------7p0-5p0-4h5p4-----|
|----------------------------------5--5-------------------------------|
|---0--0--------------------------------------------------------------|

Chorus:

Guitars 1 and 2:
                                    X3
|-------------------------------------|-------------------------------|
|-------------------------------------|-------------------------------|
|-------------------5-55555--7-77777--|9-99999-9-99999-7-77777-7-77777|
|-2-22222--5-55555--5-55555--7-77777--|9-99999-9-99999-7-77777-7-77777|
|-2-22222--5-55555--3-33333--5-55555--|7-77777-7-77777-5-55555-5-55555|
|-0-00000--3-33333--------------------|-------------------------------|

Guitar 1:
Plays during 2nd repeat of chorus until the end

|---------------------------------------------------------------------|
|---------8p0-7p0------------------------8p0-7p0----------------------|
|----------------7p0-----------------------------7p0------------------|
|-------------------7p0-5p0-4h5p4-------------------7p0-5p0-4h5p4-----|
|----------------------------------5--5-------------------------------|
|---0--0--------------------------------------------------------------|

Outro:
Both Guitars
|---------------------------------------------------------------------|
|---------------------------------------------------------------------|
|---------------------------------------------------------------------|
|-------222--2--22--22----9/0-----------------------------------------|
|-------222--2--22--22----7/0-----------------------------------------|
|-------000--0--00--00------------------------------------------------|
Tap to rate this tab
 
# A B C D E F G H I J K L M N O P Q R S T U V W X Y Z