Guitaretab - guitar tabs
Song name
# A B C D E F G H I J K L M N O P Q R S T U V W X Y Z

Simple Plan - You Suck At Love tab

Artist    : Simple Plan
Song      : You Suck At Love
Album     : Get Your Heart On!
Tabbed By : Ketan (ketan.gupta50@yahoo.co.in)

[Intro 1]
e|-------14---------14--------14--------14--------14-------------------------|
B|----15---------15--------15--------15--------15----------------------------|
G|-14--------12---------14--------12--------14----12-------------------------|
D|---------------------------------------------------------------------------|
A|---------------------------------------------------------------------------|
E|---------------------------------------------------------------------------|


[Intro 2]

Guitar 1
e|---------------------------------------------------------|
B|---------------------------------------------------------|
G|----7--7-----7--7-----7--7-----7--7----------------------|x2
D|----7--7-----7--7-----7--7-----7--7----------------------|
A|----5--5-----5--5-----5--5-----5--5----------------------|
E|---------------------------------------------------------|

Guitar 2
e|---------------------------------------------------------|
B|---------------------------------------------------------|     
G|---12-12----11-11----12-12----11-11----------------------|x2
D|---------------------------------------------------------|
A|---10-10-----9--9----10-10-----9--9----------------------|
E|---------------------------------------------------------|

[Verse]
e|---------------------------------------------------------------------------|
B|---------------------------------------------------------------------------|
G|---------------------------------------------------------------------------|
D|---7-7-7-7-7-7-7-7-7-7-7-7-7-7-7-7---2-2-2-2-2-2-2-2-2-2-2-2-2-2-2-2-------|
A|---5-5-5-5-5-5-5-5-5-5-5-5-5-5-5-5---0-0-0-0-0-0-0-0-0-0-0-0-0-0-0-0-------|
E|---------------------------------------------------------------------------|


e|---------------------------------------------------------------------------|
B|---------------------------------------------------------------------------|
G|---------------------------------------------------------------------------|
D|---4-4-4-4-4-4-4-4-4-4-4-4-4-4-4-4-----------------------------7-7-7-------|
A|---2-2-2-2-2-2-2-2-2-2-2-2-2-2-2-2---5-5-5-5-5-5-5-5-5-5-5-5-5-7-7-7-------|
E|-------------------------------------3-3-3-3-3-3-3-3-3-3-3-3-3-5-5-5-------|


e|---------------------------------------------------------------------------|
B|---------------------------------------------------------------------------|
G|---------------------------------------------------------------------------|
D|---7-7-7-7-7-7-7-7-7-7-7-7-7-7-7-7---2-2-2-2-2-2-2-2-2-2-2-2-2-2-2-2-------|
A|---5-5-5-5-5-5-5-5-5-5-5-5-5-5-5-5---0-0-0-0-0-0-0-0-0-0-0-0-0-0-0-0-------|
E|---------------------------------------------------------------------------|


e|---------------------------------------------------------------------------|
B|---------------------------------------------------------------------------|
G|---------------------------------------------------------------------------|
D|------------------------------------------------------7-----7--------------|
A|---2-2-2-2-2-2-2-2-2-2-2-2-2-2-2-2---7-7-7-7-7-7-7-7--7-7-7-7--------------|
E|---0-0-0-0-0-0-0-0-0-0-0-0-0-0-0-0---5-5-5-5-5-5-5-5--5-5-5-5--------------|

[Chorus]
e|---------------------------------------------------------------------------|
B|---------------------------------------------------------------------------|
G|--------------------7-7-7-7-7-7-7-7----------------------------------------|
D|---5-5-5-5-5-5-5-5--7-7-7-7-7-7-7-7--7-7-7-7-7-7-7-7--4-4-4-4-4-4-4-4------|
A|---5-5-5-5-5-5-5-5--5-5-5-5-5-5-5-5--7-7-7-7-7-7-7-7--4-4-4-4-4-4-4-4------|
E|---3-3-3-3-3-3-3-3-------------------5-5-5-5-5-5-5-5--2-2-2-2-2-2-2-2------|

e|---------------------------------------------------------------------------|
B|---------------------------------------------------------------------------|
G|--------------------7-7-7-7-7-7-7-7----------------------------------------|
D|---5-5-5-5-5-5-5-5--7-7-7-7-7-7-7-7---7-7---7-7---7-7---7-7--7-7-7-7-------|
A|---5-5-5-5-5-5-5-5--5-5-5-5-5-5-5-5---7-7---7-7---7-7---7-7--7-7-7-7-------|
E|---3-3-3-3-3-3-3-3--------------------5-5---5-5---5-5---5-5--5-5-5-5-------|

e|---------------------------------------------------------------------------|
B|---------------------------------------------------------------------------|
G|--------------------7-7-7-7-7-7-7-7----------------------------------------|
D|---5-5-5-5-5-5-5-5--7-7-7-7-7-7-7-7--7-7-7-7-7-7-7-7--4-4-4-4-4-4-4-4------|
A|---5-5-5-5-5-5-5-5--5-5-5-5-5-5-5-5--7-7-7-7-7-7-7-7--4-4-4-4-4-4-4-4------|
E|---3-3-3-3-3-3-3-3-------------------5-5-5-5-5-5-5-5--2-2-2-2-2-2-2-2------|

e|---------------------------------------------------------------------------|
B|---------------------------------------------------------------------------|
G|---------------------------------------------------------------------------|
D|---5-5-5-5-5-5-5-5-----7---------------------------------------------------|
A|---5-5-5-5-5-5-5-5-----7---------------------------------------------------|
E|---3-3-3-3-3-3-3-3-----5---------------------------------------------------|

[Interlude]
Now I kinda feel bad for you
You're never gonna know
what it's like to have someone to turn to
e|---------------------------------------------------------------------------|
B|---------------------------------------------------------------------------|
G|---------------------------------------------------------------------------|
D|---------------------------------------------------------------------------|
A|---2---------5--------2---------5------------------------------------------|
E|--------3------------------3-----------------------------------------------|
[ Tab from: http://www.guitaretab.com/s/simple-plan/285827.html ]
Another day, another bed
It's just a game inside your head
e|---------------------------------------------------------------------------|
B|---------------------------------------------------------------------------|
G|---------------------------------------------------------------------------|
D|--------------------------------------------------------------------7-----7|
A|2-2-2-2-2-2-2-2--4-4-4-4-4-4-4-4--5-5-5-5-5-5-5-5--7-7-7-7-7-7-7-7--7-7-7-7|
E|0-0-0-0-0-0-0-0--2-2-2-2-2-2-2-2--3-3-3-3-3-3-3-3--5-5-5-5-5-5-5-5--5-5-5-5|

[End Chorus]
e|---------------------------------------------------------------------------|
B|---------------------------------------------------------------------------|
G|--------------------7-7-7-7-7-7-7-7----------------------------------------|
D|---5-5-5-5-5-5-5-5--7-7-7-7-7-7-7-7--7-7-7-7-7-7-7-7--4-4-4-4-4-4-4-4------|
A|---5-5-5-5-5-5-5-5--5-5-5-5-5-5-5-5--7-7-7-7-7-7-7-7--4-4-4-4-4-4-4-4------|
E|---3-3-3-3-3-3-3-3-------------------5-5-5-5-5-5-5-5--2-2-2-2-2-2-2-2------|

e|---------------------------------------------------------------------------|
B|---------------------------------------------------------------------------|
G|--------------------7-7-7-7-7-7-7-7----------------------------------------|
D|---5-5-5-5-5-5-5-5--7-7-7-7-7-7-7-7---7-7---7-7---7-7---7-7--7-7-7-7-------|
A|---5-5-5-5-5-5-5-5--5-5-5-5-5-5-5-5---7-7---7-7---7-7---7-7--7-7-7-7-------|
E|---3-3-3-3-3-3-3-3--------------------5-5---5-5---5-5---5-5--5-5-5-5-------|

e|---------------------------------------------------------------------------|
B|---------------------------------------------------------------------------|
G|--------------------7-7-7-7-7-7-7-7----------------------------------------|
D|---5-5-5-5-5-5-5-5--7-7-7-7-7-7-7-7--7-7-7-7-7-7-7-7--4-4-4-4-4-4-4-4------|
A|---5-5-5-5-5-5-5-5--5-5-5-5-5-5-5-5--7-7-7-7-7-7-7-7--4-4-4-4-4-4-4-4------|
E|---3-3-3-3-3-3-3-3-------------------5-5-5-5-5-5-5-5--2-2-2-2-2-2-2-2------|

e|---------------------------------------------------------------------------|
B|---------------------------------------------------------------------------|
G|---------------------------------------------------------------------------|
D|---5-5-5-5-5-5-5-5--7-7-7-7-7-7-7-7----------------------------------------|
A|---5-5-5-5-5-5-5-5--7-7-7-7-7-7-7-7----------------------------------------|
E|---3-3-3-3-3-3-3-3--5-5-5-5-5-5-5-5----------------------------------------|

e|---------------------------------------------------------------------------|
B|---------------------------------------------------------------------------|
G|--------------------7-7-7-7-7-7-7-7----------------------------------------|
D|---5-5-5-5-5-5-5-5--7-7-7-7-7-7-7-7--7-7-7-7-7-7-7-7--4-4-4-4-4-4-4-4------|
A|---5-5-5-5-5-5-5-5--5-5-5-5-5-5-5-5--7-7-7-7-7-7-7-7--4-4-4-4-4-4-4-4------|
E|---3-3-3-3-3-3-3-3-------------------5-5-5-5-5-5-5-5--2-2-2-2-2-2-2-2------|

e|---------------------------------------------------------------------------|
B|---------------------------------------------------------------------------|
G|--------------------7-7-7-7-7-7-7-7----------------------------------------|
D|---5-5-5-5-5-5-5-5--7-7-7-7-7-7-7-7---7-7---7-7---7-7---7-7--7-7-7-7-------|
A|---5-5-5-5-5-5-5-5--5-5-5-5-5-5-5-5---7-7---7-7---7-7---7-7--7-7-7-7-------|
E|---3-3-3-3-3-3-3-3--------------------5-5---5-5---5-5---5-5--5-5-5-5-------|

e|---------------------------------------------------------------------------|
B|---------------------------------------------------------------------------|
G|--------------------7-7-7-7-7-7-7-7----------------------------------------|
D|---5-5-5-5-5-5-5-5--7-7-7-7-7-7-7-7--7-7-7-7-7-7-7-7--4-4-4-4-4-4-4-4------|
A|---5-5-5-5-5-5-5-5--5-5-5-5-5-5-5-5--7-7-7-7-7-7-7-7--4-4-4-4-4-4-4-4------|
E|---3-3-3-3-3-3-3-3-------------------5-5-5-5-5-5-5-5--2-2-2-2-2-2-2-2------|

e|---------------------------------------------------------------------------|
B|---------------------------------------------------------------------------|
G|--------------------7-7-7-7-7-7-7-7----------------------------------------|x2
D|---5-5-5-5-5-5-5-5--7-7-7-7-7-7-7-7----------------------------------------|
A|---5-5-5-5-5-5-5-5--5-5-5-5-5-5-5-5----------------------------------------|
E|---3-3-3-3-3-3-3-3---------------------------------------------------------|

e|---------------------------------------------------------------------------|
B|---------------------------------------------------------------------------|
G|---------------------------------------------------------------------------|
D|---5-5-5-5-5-5-5-5-----7---------------------------------------------------|
A|---5-5-5-5-5-5-5-5-----7---------------------------------------------------|
E|---3-3-3-3-3-3-3-3-----5---------------------------------------------------|


[Outro]
Guitar 1
e|---------------------------------------------------------|
B|---------------------------------------------------------|
G|----7--7-----7--7-----7--7-----7--7----------------------|
D|----7--7-----7--7-----7--7-----7--7----------------------|
A|----5--5-----5--5-----5--5-----5--5----------------------|
E|---------------------------------------------------------|

Guitar 2
e|---------------------------------------------------------|
B|---------------------------------------------------------|     
G|---12-12----11-11----12-12----11-11----------------------|
D|---------------------------------------------------------|
A|---10-10-----9--9----10-10-----9--9----------------------|
E|---------------------------------------------------------|

Guitar 1
e|----7--7-----7--7-----7--7-------------------------------------------------|
B|----7--7-----7--7-----7--7-------------------------------------------------|
G|----5--5-----5--5-----5--5-------------------------------------------------|
D|---------------------------------------------------------------------------|
A|---------------------------------------------------------------------------|
E|---------------------------------------------------------------------------|

Guitar 2

e|---------------------------------------------------------------------------|
B|---------------------------------------------------------------------------|
G|----12-12----11-11----11-11------------------------------------------------|
D|---------------------------------------------------------------------------|
A|----10-10-----9--9-----9--9------------------------------------------------|
E|---------------------------------------------------------------------------|


Order

Intro 1  
Intro 2  
Verse 1  
Chorus
Intro 2
Verse 2
Chorus 
Intro 2
Interlude
End Chorus
Outro
Related for You Suck At Love tab
You Suck At Love chords by Simple Plan