Song name
# A B C D E F G H I J K L M N O P Q R S T U V W X Y Z

Simple Plan - Id Do Anything tab

Song: I'd Do Anything
Artist: Simple Plan
Album:No Pads No Helmets....Just Balls
So i already found a good tab version of this song but there were some mistakes so i took the tab 
and made a version which is 100%ly perfect.

And i have to say that there are 2 versions of this song. the first version is normally tabbed 
in drop d and the other version is the same but i put some special things in it 
which make it sound
better. i play the song like version 2.

Legend
______

* - Palm Muted
t - finger tap
/ - slide up
\ - slide down

__________________________________________________________________________________________________
                                                Version 1
__________________________________________________________________________________________________

Intro
_____

Guitar 1

E|---------------------------------------------------------------------|
B|---------------------------------------------------------------------|
G|---------------------------------------------------------------------|
D|----3-6----5-8------6-6-6-6-6-6-6------------------------------------|x2
A|-4------6-----------6-6-6-6-6-6-6------------------------------------|
D|---------------6----6-6-6-6-6-6-6------------------------------------|
PM                    * * *         

Guitar 1

E|---------------------------------------------------------------------|
B|---------------------------------------------------------------------|
G|---------------------------------------------------------------------|
D|----3-6----5-8-------------------------------------------------------|x1
A|-4------6------------------------------------------------------------|
D|---------------6-----------------------------------------------------|

Verse
_____

Guitar 1

E|---------------------------------------------------------------------|
B|---------------------------------------------------------------------|
G|---------------------------------------------------------------------|
D|-6--6--5-6--5--6--5-6--3--6--5-6------3-6-----5-8--------------------|x4
A|-6----------5----------3-----------4-------6-------------------------|
D|-6----------5----------3---------------------------------------------|

Guitar 2 (comes in at 3rd time)

E|--4---4-4------------------------------------------------------------|
B|---------------------------------------------------------------------|
G|---------------------------------------------------------------------|
D|---------------------------------------------------------------------|
A|---------------------------------------------------------------------|
D|---------------------------------------------------------------------|

Pre Chorus
__________

Guitar 1

E|---------------------------------------------------------------------|
B|---------------------------------------------------------------------|
G|---------------------------------------------------------------------|
D|-8--6--5-6----------6--5-6----------6--5-6----------5--6-5-----------|
A|-8---------------3---------------4---------------6-------------------|
D|-8-------------------------------------------------------------------|

Guitar 2

E|---------------------------------------------------------------------|
B|---------------------------------------------------------------------|
G|-----------------5--5-5-5-5-5-5--6--6-6-6-6-6-6--8--8-8-8-8-8-8------|
D|-8--8-8-8-8-8-8--5--5-5-5-5-5-5--6--6-6-6-6-6-6--8--8-8-8-8-8-8------|
A|-8--8-8-8-8-8-8--3--3-3-3-3-3-3--4--4-4-4-4-4-4--6--6-6-6-6-6-6------|
D|-8--8-8-8-8-8-8------------------------------------------------------|
PM    * * * * * *     * * * * * *     * * * * * *     * * * * * *

Chorus
______

Both Guitars

E|------|--------------------------------------------------------------|
B|------|--------------------------------------------------------------|
G|-6--6-|--------------------------------------------------------------|
D|-6--6-|-6-6-6-6-6-6-6-6-1-1-1-1-1-1-1-1-3-3-3-3-3-3-3-3--------------|
A|-4--4-|-6-6-6-6-6-6-6-6-1-1-1-1-1-1-1-1-3-3-3-3-3-3-3-3--------------|
D|------|-6-6-6-6-6-6-6-6-1-1-1-1-1-1-1-1-3-3-3-3-3-3-3-3--------------|

E|---------------------------------------------------------------------|
B|---------------------------------------------------------------------|
G|-6--6--6-6-6-6-------------------------------------------------------|
D|-6--6--6-6-6-6-6-6-6-6-6-6-6-6-1-1-1-1-1-1-1-1-3-3-3-3-3-3-3-3-------|
A|-4--4--4-4-4-4-6-6-6-6-6-6-6-6-1-1-1-1-1-1-1-1-3-3-3-3-3-3-3-3-------|
D|---------------6-6-6-6-6-6-6-6-1-1-1-1-1-1-1-1-3-3-3-3-3-3-3-3-------|

E|------|--------------------------------------------------------------|
B|------|--------------------------------------------------------------|
G|-6--6-|--------------------------------------------------------------|
D|-6--6-|-6-6-6-6-6-6-6-6-1-1-1-1-1-1-1-1-3-3-3-3-3-3-3-3--------------|
A|-4--4-|-6-6-6-6-6-6-6-6-1-1-1-1-1-1-1-1-3-3-3-3-3-3-3-3--------------|
D|------|-6-6-6-6-6-6-6-6-1-1-1-1-1-1-1-1-3-3-3-3-3-3-3-3--------------|

E|---------------------------------------------------------------------|
B|---------------------------------------------------------------------|
G|-6--6--6-6-6-6-------------------------------------------------------|
D|-6--6--6-6-6-6-6-6-6-6-6-6-6-6-1-1-1-1-1-1-1-1-3-3-3-3-3-3-3-3-------|
A|-4--4--4-4-4-4-6-6-6-6-6-6-6-6-1-1-1-1-1-1-1-1-3-3-3-3-3-3-3-3-------|
D|---------------6-6-6-6-6-6-6-6-1-1-1-1-1-1-1-1-3-3-3-3-3-3-3-3-------|

Guitar 1

E|-----|---------------------------------------------------------------|
B|-----|---------------------------------------------------------------|
G|-6---|---------------------------------------------------------------|
D|-6---|----3-6-----5-8------------------------------------------------|
A|-4---|-4-------6-----------------------------------------------------|
D|-----|---------------------------------------------------------------|

Verse
_____

Guitar 1

E|---------------------------------------------------------------------|
B|---------------------------------------------------------------------|
G|---------------------------------------------------------------------|
D|-6--6--5-6--5--6--5-6--3--6--5-6------3-6-----5-8--------------------|x4
A|-6----------5----------3-----------4-------6-------------------------|
D|-6----------5----------3---------------------------------------------|

Guitar 2

E|--4---4-4------------------------------------------------------------|
B|---------------------------------------------------------------------|
G|---------------------------------------------------------------------|
D|---------------------------------------------------------------------|x2
A|---------------------------------------------------------------------|
D|---------------------------------------------------------------------|

E|---------------------------------------------------------------------|
B|---------------------------------------------------------------------|
G|----5--3-5-----------------------------------------------------------|
D|---------------------------------------------------------------------|x2
A|---------------------------------------------------------------------|
D|---------------------------------------------------------------------|

Pre Chorus
__________

Both Guitars

E|---------------------------------------------------------------------|
B|---------------------------------------------------------------------|
G|-----------------5--5-5-5-5-5-5--6--6-6-6-6-6-6--8--8-8-8-8-8-8--8-8-|
D|-8--8-8-8-8-8-8--5--5-5-5-5-5-5--6--6-6-6-6-6-6--8--8-8-8-8-8-8--8-8-|
A|-8--8-8-8-8-8-8--3--3-3-3-3-3-3--4--4-4-4-4-4-4--6--6-6-6-6-6-6--6-6-|
D|-8--8-8-8-8-8-8------------------------------------------------------|
PM    * * * * * *     * * * * * *     * * * * * *     * * * * * *

E|---------------------------------------------------------------------|
B|---------------------------------------------------------------------|
G|-----------------6--6-6-6-6-6-6--8--8-8-8-8-8-8-8-8-8-8-8-8-8-8------|
D|-8--8-8-8-8-8-8--6--6-6-6-6-6-6--8--8-8-8-8-8-8-8-8-8-8-8-8-8-8------|
A|-8--8-8-8-8-8-8--4--4-4-4-4-4-4--6--6-6-6-6-6-6-6-6-6-6-6-6-6-6------|
D|-8--8-8-8-8-8-8------------------------------------------------------|
PM    * * * * * *     * * * * * *     * * * * * * *

Chorus
______

Both Guitars

E|------|--------------------------------------------------------------|
B|------|--------------------------------------------------------------|
G|-6--6-|--------------------------------------------------------------|
D|-6--6-|-6-6-6-6-6-6-6-6-1-1-1-1-1-1-1-1-3-3-3-3-3-3-3-3--------------|
A|-4--4-|-6-6-6-6-6-6-6-6-1-1-1-1-1-1-1-1-3-3-3-3-3-3-3-3--------------|
D|------|-6-6-6-6-6-6-6-6-1-1-1-1-1-1-1-1-3-3-3-3-3-3-3-3--------------|

E|---------------------------------------------------------------------|
B|---------------------------------------------------------------------|
G|-6--6--6-6-6-6-------------------------------------------------------|
D|-6--6--6-6-6-6-6-6-6-6-6-6-6-6-1-1-1-1-1-1-1-1-3-3-3-3-3-3-3-3-------|
A|-4--4--4-4-4-4-6-6-6-6-6-6-6-6-1-1-1-1-1-1-1-1-3-3-3-3-3-3-3-3-------|
D|---------------6-6-6-6-6-6-6-6-1-1-1-1-1-1-1-1-3-3-3-3-3-3-3-3-------|

E|------|--------------------------------------------------------------|
B|------|--------------------------------------------------------------|
G|-6--6-|--------------------------------------------------------------|
D|-6--6-|-6-6-6-6-6-6-6-6-1-1-1-1-1-1-1-1-3-3-3-3-3-3-3-3--------------|
A|-4--4-|-6-6-6-6-6-6-6-6-1-1-1-1-1-1-1-1-3-3-3-3-3-3-3-3--------------|
D|------|-6-6-6-6-6-6-6-6-1-1-1-1-1-1-1-1-3-3-3-3-3-3-3-3--------------|

E|---------------------------------------------------------------------|
B|---------------------------------------------------------------------|
G|-6--6--6-6-6-6-------------------------------------------------------|
D|-6--6--6-6-6-6-6-6-6-6-6-6-6-6-1-1-1-1-1-1-1-1-3-3-3-3-3-3-3-3-------|
A|-4--4--4-4-4-4-6-6-6-6-6-6-6-6-1-1-1-1-1-1-1-1-3-3-3-3-3-3-3-3-------|
D|---------------6-6-6-6-6-6-6-6-1-1-1-1-1-1-1-1-3-3-3-3-3-3-3-3-------|

Silent Part
___________
No Guitars. Just some special guitar effects in the background.

Pre Solo
________

Both Guitars

E|---------------------------------------------------------------------|
B|---------------------------------------------------------------------|
G|---------------------------------------------------------------------|
D|--1-------1-------1---1---1-1-1-1------------------------------------|
A|--1-------1-------1---1---1-1-1-1------------------------------------|
D|--1-------1-------1---1---1-1-1-1------------------------------------|

End with

E|--------|
B|--------|
G|--6--6--|
D|--6--6--|
A|--4--4--|
D|--------|

Solo
____

Guitar 1

E|---------------------------------------------------------------------|
B|---------------------------------------------------------------------|
G|---------------------------------6--6--6-6-6-6-----------------------|
D|-1-1-1-1-1-1-1-1-3-3-3-3-3-3-3-3-6--6--6-6-6-6-----------------------|x1
A|-1-1-1-1-1-1-1-1-3-3-3-3-3-3-3-3-4--4--4-4-4-4-----------------------|
D|-1-1-1-1-1-1-1-1-3-3-3-3-3-3-3-3-------------------------------------|

E|---------------------------------------------------------------------|
B|---------------------------------------------------------------------|
G|-------------------------------------------------6--6--6-6-6-6-------|
D|-6-6-6-6-6-6-6-6-1-1-1-1-1-1-1-1-3-3-3-3-3-3-3-3-6--6--6-6-6-6-------|x6
A|-6-6-6-6-6-6-6-6-1-1-1-1-1-1-1-1-3-3-3-3-3-3-3-3-4--4--4-4-4-4-------|
D|-6-6-6-6-6-6-6-6-1-1-1-1-1-1-1-1-3-3-3-3-3-3-3-3---------------------|

E|---------------------------------------------------------------------|
B|---------------------------------------------------------------------|
G|-------------------------------------------------6-------------------|
D|-6-6-6-6-6-6-6-6-1-1-1-1-1-1-1-1-3-3-3-3-3-3-3-3-6--Let-it-ring------|x1
A|-6-6-6-6-6-6-6-6-1-1-1-1-1-1-1-1-3-3-3-3-3-3-3-3-4-------------------|
D|-6-6-6-6-6-6-6-6-1-1-1-1-1-1-1-1-3-3-3-3-3-3-3-3---------------------|

Guitar 2

E|--11---11-11-11-11---------------------------------------------------|
B|--------------------9/11-11-11/13--9---9-9-9-9-8-9-8\6-8-------------|
G|---------------------------------------------------------------------|
D|---------------------------------------------------------------------|x2
A|---------------------------------------------------------------------|
D|---------------------------------------------------------------------|

E|--11-11-11-11--------------------------------------------------------|
B|-----------------9-9-9--11-11-11-------------------------------------|
G|---------------------------------------------------------------------|
D|---------------------------------------------------------------------|x4
A|---------------------------------------------------------------------|
D|---------------------------------------------------------------------|

Outro
_____

E|---------------------------------------------------------------------|
B|---------------------------------------------------------------------|
G|---------------------------------------------------------------------|
D|----3-6-----5-8--6\--------------------------------------------------|
A|-4-------6-------6\--------------------------------------------------|
D|-----------------6\--------------------------------------------------|


__________________________________________________________________________________________________
                                      Version 2 (Special Extra Version)
__________________________________________________________________________________________________

This is the version with some special notes which aren't in the song, but it's the 
way i play it. And 
it sounds good.- ... it's nearly the same just some little extras...

Intro
_____

Guitar 1

E|---------------------------------------------------------------------|
B|---------------------------------------------------------------------|
G|---------------------------------------------------------------------|
D|----3-6----5-8------6-6-6-6-6-6-6------------------------------------|x2
A|-4------6-----------6-6-6-6-6-6-6------------------------------------|
D|---------------6----6-6-6-6-6-6-6------------------------------------|
PM                    * * *         

Guitar 1

E|---------------------------------------------------------------------|
B|---------------------------------------------------------------------|
G|---------------------------------------------------------------------|
D|----3-6----5-8-------------------------------------------------------|x1
A|-4------6------------------------------------------------------------|
D|---------------6-----------------------------------------------------|

Verse
_____

Guitar 1

E|---------------------------------------------------------------------|
B|---------------------------------------------------------------------|
G|---------------------------------------------------------------------|
D|-6--6--5-6--5--6--5-6--3--6--5-6------3-6-----5-8--------------------|x4
A|-6----------5----------3-----------4-------6-------------------------|
D|-6----------5----------3---------------------------------------------|

Guitar 2 (comes in at 3rd time)

E|--4---4-4------------------------------------------------------------|
B|---------------------------------------------------------------------|
G|---------------------------------------------------------------------|
D|---------------------------------------------------------------------|
A|---------------------------------------------------------------------|
D|---------------------------------------------------------------------|

Pre Chorus
__________

Guitar 1

E|---------------------------------------------------------------------|
B|---------------------------------------------------------------------|
G|---------------------------------------------------------------------|
D|-8--6--5-6----------6--5-6----------6--5-6----------5--6-5-----------|
A|-8---------------3---------------4---------------6-------------------|
D|-8-------------------------------------------------------------------|

Guitar 2

E|---------------------------------------------------------------------|
B|---------------------------------------------------------------------|
G|-----------------5--5-5-5-5-5-5--6--6-6-6-6-6-6--8--8-8-8-8-8-8------|
D|-8--8-8-8-8-8-8--5--5-5-5-5-5-5--6--6-6-6-6-6-6--8--8-8-8-8-8-8------|
A|-8--8-8-8-8-8-8--3--3-3-3-3-3-3--4--4-4-4-4-4-4--6--6-6-6-6-6-6------|
D|-8--8-8-8-8-8-8------------------------------------------------------|
PM    * * * * * *     * * * * * *     * * * * * *     * * * * * *

Chorus
______

Both Guitars

E|------|--------------------------------------------------------------|
B|------|--------------------------------------------------------------|
G|-6--6-|--------------------------------------------------------------|
D|-6--6-|-6-6-6-6-6-6-6-6-1-1-1-1-1-1-1-1-3-3-3-3-3-3-3-3--------------|
A|-4--4-|-6-6-6-6-6-6-6-6-1-1-1-1-1-1-1-1-3-3-3-3-3-3-3-3--------------|
D|------|-6-6-6-6-6-6-6-6-1-1-1-1-1-1-1-1-3-3-3-3-3-3-3-3--------------|

E|---------------------------------------------------------------------|
B|---------------------------------------------------------------------|
G|-6--6--6-6-6-6-------------------------------------------------------|
D|-6--6--6-6-6-6-6-6-6-6-6-6-6-6-1-1-1-1-1-1-1-1-3-3-3-3-3-3-3-3-------|
A|-4--4--4-4-4-4-6-6-6-6-6-6-6-6-1-1-1-1-1-1-1-1-3-3-3-3-3-3-3-3-------|
D|---------------6-6-6-6-6-6-6-6-1-1-1-1-1-1-1-1-3-3-3-3-3-3-3-3-------|

E|------|--------------------------------------------------------------|
B|------|--------------------------------------------------------------|
G|-6--6-|--------------------------------------------------------------|
D|-6--6-|-6-6-6-6-6-6-6-6-1-1-1-1-1-1-1-1-3-3-3-3-3-3-3-3--------------|
A|-4--4-|-6-6-6-6-6-6-6-6-1-1-1-1-1-1-1-1-3-3-3-3-3-3-3-3--------------|
D|------|-6-6-6-6-6-6-6-6-1-1-1-1-1-1-1-1-3-3-3-3-3-3-3-3--------------|

E|---------------------------------------------------------------------|
B|---------------------------------------------------------------------|
G|-6--6--6-6-6-6-------------------------------------------------------|
D|-6--6--6-6-6-6-6-6-6-6-6-6-6-6-1-1-1-1-1-1-1-1-3-3-3-3-3-3-3-3-------|
A|-4--4--4-4-4-4-6-6-6-6-6-6-6-6-1-1-1-1-1-1-1-1-3-3-3-3-3-3-3-3-------|
D|---------------6-6-6-6-6-6-6-6-1-1-1-1-1-1-1-1-3-3-3-3-3-3-3-3-------|

Guitar 1

E|-----|---------------------------------------------------------------|
B|-----|---------------------------------------------------------------|
G|-6---|---------------------------------------------------------------|
D|-6---|----3-6-----5-8------------------------------------------------|
A|-4---|-4-------6-----------------------------------------------------|
D|-----|---------------------------------------------------------------|

Verse
_____

Guitar 1

E|---------------------------------------------------------------------|
B|---------------------------------------------------------------------|
G|---------------------------------------------------------------------|
D|-6--6--5-6--5--6--5-6--3--6--5-6------3-6-----5-8--------------------|x4
A|-6----------5----------3-----------4-------6-------------------------|
D|-6----------5----------3---------------------------------------------|

Guitar 2

E|--4---4-4------------------------------------------------------------|
B|---------------------------------------------------------------------|
G|---------------------------------------------------------------------|
D|---------------------------------------------------------------------|x2
A|---------------------------------------------------------------------|
D|---------------------------------------------------------------------|

E|---------------------------------------------------------------------|
B|---------------------------------------------------------------------|
G|----5--3-5-----------------------------------------------------------|
D|---------------------------------------------------------------------|x2
A|---------------------------------------------------------------------|
D|---------------------------------------------------------------------|

Pre Chorus
__________

Both Guitars

E|---------------------------------------------------------------------|
B|---------------------------------------------------------------------|
G|-----------------5--5-5-5-5-5-5--6--6-6-6-6-6-6--8--8-8-8-8-8-8--8-8-|
D|-8--8-8-8-8-8-8--5--5-5-5-5-5-5--6--6-6-6-6-6-6--8--8-8-8-8-8-8--8-8-|
A|-8--8-8-8-8-8-8--3--3-3-3-3-3-3--4--4-4-4-4-4-4--6--6-6-6-6-6-6--6-6-|
D|-8--8-8-8-8-8-8------------------------------------------------------|
PM    * * * * * *     * * * * * *     * * * * * *     * * * * * *

E|---------------------------------------------------------------------|
B|---------------------------------------------------------------------|
G|-----------------6--6-6-6-6-6-6--8--8-8-8-8-8-8-8-8-8-8-8-8-8-8------|
D|-8--8-8-8-8-8-8--6--6-6-6-6-6-6--8--8-8-8-8-8-8-8-8-8-8-8-8-8-8------|
A|-8--8-8-8-8-8-8--4--4-4-4-4-4-4--6--6-6-6-6-6-6-6-6-6-6-6-6-6-6------|
D|-8--8-8-8-8-8-8------------------------------------------------------|
PM    * * * * * *     * * * * * *     * * * * * * *

Chorus
______

Both Guitars

E|------|--------------------------------------------------------------|
B|------|--------------------------------------------------------------|
G|-6--6-|--------------------------------------------------------------|
D|-6--6-|-6-6-6-6-6-6-6-6-1-1-1-1-1-1-1-1-3-3-3-3-3-3-3-3--------------|
A|-4--4-|-6-6-6-6-6-6-6-6-1-1-1-1-1-1-1-1-3-3-3-3-3-3-3-3--------------|
D|------|-6-6-6-6-6-6-6-6-1-1-1-1-1-1-1-1-3-3-3-3-3-3-3-3--------------|

E|---------------------------------------------------------------------|
B|---------------------------------------------------------------------|
G|-6--6--6-6-6-6-------------------------------------------------------|
D|-6--6--6-6-6-6-6-6-6-6-6-6-6-6-1-1-1-1-1-1-1-1-3-3-3-3-3-3-3-3-------|
A|-4--4--4-4-4-4-6-6-6-6-6-6-6-6-1-1-1-1-1-1-1-1-3-3-3-3-3-3-3-3-------|
D|---------------6-6-6-6-6-6-6-6-1-1-1-1-1-1-1-1-3-3-3-3-3-3-3-3-------|

E|------|--------------------------------------------------------------|
B|------|--------------------------------------------------------------|
G|-6--6-|--------------------------------------------------------------|
D|-6--6-|-6-6-6-6-6-6-6-6-1-1-1-1-1-1-1-1-3-3-3-3-3-3-3-3--------------|
A|-4--4-|-6-6-6-6-6-6-6-6-1-1-1-1-1-1-1-1-3-3-3-3-3-3-3-3--------------|
D|------|-6-6-6-6-6-6-6-6-1-1-1-1-1-1-1-1-3-3-3-3-3-3-3-3--------------|

E|---------------------------------------------------------------------|
B|---------------------------------------------------------------------|
G|-6--6--6-6-6-6-------------------------------------------------------|
D|-6--6--6-6-6-6-6-6-6-6-6-6-6-6-1-1-1-1-1-1-1-1-3-3-3-3-3-3-3-3-------|
A|-4--4--4-4-4-4-6-6-6-6-6-6-6-6-1-1-1-1-1-1-1-1-3-3-3-3-3-3-3-3-------|
D|---------------6-6-6-6-6-6-6-6-1-1-1-1-1-1-1-1-3-3-3-3-3-3-3-3-------|

Silent Part
___________

Extra Guitar

E|---------------------------------------------------------------------|
B|---------------------------------------------------------------------|
G|-------------------------------------------------6-6-6-6-6-6-6-6-----|
D|-6-6-6-6-6-6-6-6-1-1-1-1-1-1-1-1-3-3-3-3-3-3-3-3-6-6-6-6-6-6-6-6-----|
A|-6-6-6-6-6-6-6-6-1-1-1-1-1-1-1-1-3-3-3-3-3-3-3-3-4-4-4-4-4-4-4-4-----|
D|-6-6-6-6-6-6-6-6-1-1-1-1-1-1-1-1-3-3-3-3-3-3-3-3---------------------|
PM * * * * * * * * * * * * * * * * * * * * * * * * * * * * * * * *

E|---------------------------------------------------------------------|
B|---------------------------------------------------------------------|
G|---------------------------------------------------------------------|
D|-6--5-6----6--5-6--1-1-1-1-1-1-1-1-3-3-3-3-3-3-3-3--6--5-6----6--5-6-|
A|-------------------1-1-1-1-1-1-1-1-3-3-3-3-3-3-3-3-------------------|
D|-------------------1-1-1-1-1-1-1-1-3-3-3-3-3-3-3-3-------------------|
PM                   * * * * * * * * * * * * * * * * 

Pre Solo
________

Both Guitars

E|---------------------------------------------------------------------|
B|---------------------------------------------------------------------|
G|---------------------------------------------------------------------|
D|--1-------1-------1---1---1-1-1-1------------------------------------|
A|--1-------1-------1---1---1-1-1-1------------------------------------|
D|--1-------1-------1---1---1-1-1-1------------------------------------|

End with

E|--------|
B|--------|
G|--6--6--|
D|--6--6--|
A|--4--4--|
D|--------|

Solo
____

Extra Guitar

E|---------------------------------------------------------------------|
B|---------------------------------------------------------------------|
G|----------------------------------------------6--6--6-6-6-6----------|
D|-t6----------\1-1-1-1-1-1-1-1-3-3-3-3-3-3-3-3-6--6--6-6-6-6----------|x1
A|-t6-let-ring-\1-1-1-1-1-1-1-1-3-3-3-3-3-3-3-3-4--4--4-4-4-4----------|
D|-t6----------\1-1-1-1-1-1-1-1-3-3-3-3-3-3-3-3------------------------|

E|---------------------------------------------------------------------|
B|---------------------------------------------------------------------|
G|-------------------------------------------------6--6--6-6-6-6-------|
D|-6-6-6-6-6-6-6-6-1-1-1-1-1-1-1-1-3-3-3-3-3-3-3-3-6--6--6-6-6-6-------|x6
A|-6-6-6-6-6-6-6-6-1-1-1-1-1-1-1-1-3-3-3-3-3-3-3-3-4--4--4-4-4-4-------|
D|-6-6-6-6-6-6-6-6-1-1-1-1-1-1-1-1-3-3-3-3-3-3-3-3---------------------|

E|---------------------------------------------------------------------|
B|---------------------------------------------------------------------|
G|-------------------------------------------------6-------------------|
D|-6-6-6-6-6-6-6-6-1-1-1-1-1-1-1-1-3-3-3-3-3-3-3-3-6--Let-it-ring------|x1
A|-6-6-6-6-6-6-6-6-1-1-1-1-1-1-1-1-3-3-3-3-3-3-3-3-4-------------------|
D|-6-6-6-6-6-6-6-6-1-1-1-1-1-1-1-1-3-3-3-3-3-3-3-3---------------------|

Guitar 2

E|--11---11-11-11-11---------------------------------------------------|
B|--------------------9/11-11-11/13--9---9-9-9-9-8-9-8\6-8-------------|
G|---------------------------------------------------------------------|
D|---------------------------------------------------------------------|x2
A|---------------------------------------------------------------------|
D|---------------------------------------------------------------------|

E|--11-11-11-11--------------------------------------------------------|
B|-----------------9-9-9--11-11-11-------------------------------------|
G|---------------------------------------------------------------------|
D|---------------------------------------------------------------------|x4
A|---------------------------------------------------------------------|
D|---------------------------------------------------------------------|

Outro
_____

E|---------------------------------------------------------------------|
B|---------------------------------------------------------------------|
G|---------------------------------------------------------------------|
D|----3-6-----5-8--6\--------------------------------------------------|
A|-4-------6-------6\--------------------------------------------------|
D|-----------------6\--------------------------------------------------|

That's it man. It's my 2nd tab. Please rate and comment!!

P.S.: I Play guitar since 2 month, i had never any guitar lessons!!

More questions mail to: lpfzcs_lms@hotmail.de
Tap to rate this tab
# A B C D E F G H I J K L M N O P Q R S T U V W X Y Z