Guitaretab - guitar tabs
Song name
# A B C D E F G H I J K L M N O P Q R S T U V W X Y Z

Simple Plan - My Christmas List tab

----------------------------------------------------------------------------
			     MY CHRISTMAS LIST - Simple Plan
----------------------------------------------------------------------------
Tabbed by:Rafa88offspring
Email:rafa88offspring@hotmail.com

I can't remember when was the last time I tabbed a song, well I was playing
guitar and trying to play "When I come Around" solo and I played this thing
that sounded familiar, it was the intro for the song so I tabbed it here.

Tuning:Standard

Intro
Guitar 1
e---------------------------------------
b-6---6---9---9---7---9---6---6---------x4
g---6---6---6---6---6---6---6---6-------
D---------------------------------------
A---------------------------------------
E---------------------------------------

the 4th time you play this the guitar 2 comes in
PM   ............
e---------------------------------------
b---------------------------------------
g---------------------------------------
D--666666666666---44-4-66---------------
A--444444444444---44-4-66---------------
E-----------------22-2-44---------------

Guitar 1
e---------------------------------------
b-6---6---9---9---7---9---6---6---------
g---6---6---6---6---6---6---6---6-------
D---------------------------------------
A---------------------------------------
E---------------------------------------

e-------------------------9-------------
b-6---6---9---9---7---9------9----------
g---6---6---6---6---6---6---------------
D---------------------------------------
A---------------------------------------
E---------------------------------------

Guitar 2
e------------------------
b------------------------
g-66-66------------------x2
D-66-66-444444-666666----
A-44-44-444444-666666----
E-------222222-444444----

the last time you play this at the end
e---------
b---------
g--6---6-- let ring
D--6---6--
A--4---4--
E---------


Verse
Guitar 2 (Palm Muted)
e-----------------
b-----------------
g-----------------
D-6-x16-----------x2
A-4-----4-x8-6-x8-
E-------2----4----

Guitar 1 (Palm Muted)
e----------------------------------
b----------------------------------
g----------------------------------
D-----666-----666-----666------666-
A-444-----444-----444------444-----
E----------------------------------

e----------------------------------
b----------------------------------
g----------------------------------
D----------------------------------
A-----444-----444-----666-----666--
E-222-----222-----444-----444------
[ Tab from: http://www.guitaretab.com/s/simple-plan/30783.html ]
Pre-Chorus
Guitar 2
Pm  ...    ...       ......
e-----------------------------
b-----------------------------
g------------------666666-6---
D-444-4--666-6-----666666-6---
A-444-4--666-6-----444444-4---
E-222-2--444-4----------------

Chorus
Guitar 2
Pm                   ..... .....
e--------------------------------
b--------------------------------
g-66----------66-----------------
D-66-66-44-66-66-66-44444-66666--
A-44-66-44-66-44-66-44444-66666--
E----44-22-44----44-22222-44444--

Pm              .....
e-------------------------------------
b-------------------------------------
g-66----------66666-6-----------------
D-66-66-44-66-66666-6-666666-444444---
A-44-66-44-66-44444-4-666666-444444---
E----44-22-44---------444444-222222---

pM  .....
e-------------------------
b-------------------------
g-66666-6-----------------
D-66666-6-666666-444444---
A-44444-4-666666-444444---
E---------444444-222222---

Bridge or whatever is called

Guitar 1
e---------------------------------------
b-6---6---9---9---7---9---6---6---------
g---6---6---6---6---6---6---6---6-------
D---------------------------------------
A---------------------------------------
E---------------------------------------

e-------------------------9-------------
b-6---6---9---9---7---9------9----------
g---6---6---6---6---6---6---------------
D---------------------------------------
A---------------------------------------
E---------------------------------------

Guitar 2
e------------------------
b------------------------
g-66-66------------------x2
D-66-66-444444-666666----
A-44-44-444444-666666----
E-------222222-444444----

Verse 2 (same as Verse 1)

Pre-Chorus

Chorus

Bridge

Interlude
Guitar 2 (let ring)
e--------------
b--------------
g-------6------x2
D-4--6--6-6-4--
A-4--6--4-6-4--
E-2--4----4-2--

Then The chorus is played with just bass and the last time guitar 2 plays
Pm ............ ..........
e-------------------------------
b-------------------------------
g-------------------------------
D-444444444444-666666666-6-6----
A-444444444444-666666666-6-6----
E-222222222222-444444444-4-4----

Chorus

Outro

Guitar 1
e---------------------------------------
b-6---6---9---9---7---9---6---6---------x4
g---6---6---6---6---6---6---6---6-------
D---------------------------------------
A---------------------------------------
E---------------------------------------

Guitar 2
e------------------------
b------------------------
g-66-66------------------x2
D-66-66-444444-666666----
A-44-44-444444-666666----
E-------222222-444444----

the last time you play this at the end
e---------
b---------
g--6---6-- let ring
D--6---6--
A--4---4--
E---------

That's it, Hope you like it, it's almost correct I can't play the guitar 1
in chorus if someone knows it mail it to me.
Related for My Christmas List tab