Song name
# A B C D E F G H I J K L M N O P Q R S T U V W X Y Z

Simple Plan - Freaking Me Out tab

Intro:

E--------------------------------------------|
B-----------------------10--10-11-11---------|
G---10--10--10-12----------------------------|   (3x)
D--------------------------------------------|
A--------------------------------------------|
E--------------------------------------------|

E--------------------------------------------|
B-----------------------10--10--12-----------|
G---10--10--10-12----------------------------|
D--------------------------------------------|
A--------------------------------------------|
E--------------------------------------------|


Verse:

E--------------------------------------------|
B--------------------------------------------|
G--------------------------------------------|
D-10----------6----------3------------8------|
A-10(X8)------6(X8)------3(X8)--------8(X8)--|
E--8----------4----------1------------6------|


Chorus:

E-------------------------------------------------------------|
B-------------------------------------------------------------|
G---------------8--------------10-----------------------------|    (2x)
D-10------------8--(10x)-------10---------------8-------------|
A-10--(6x)------6---------------8--(6x)---------8--(10x)------|
E--8--------------------------------------------6-------------|

E---------------------------------------------------------------|
B---------------------------------------------------------------|
G---------------8-----------------------------------6-----------|     (2x)
D--10-----------8--(10x)--------8-------------------6--(10x)----|
A--10--(6x)-----6---------------8--(6x)-------------4-----------|
E---8---------------------------6-------------------------------|

E-----------------------------------------------------|
B-----------------------------------------------------|
G-----------------------------------------------------|
D--5--5--5--5--5--5--5--5--5--5--5--5--5--5--5--5-----|
A--5--5--5--5--5--5--5--5--5--5--5--5--5--5--5--5-----|
E--7--7--7--7--7--7--7--7--7--7--7--7--7--7--7--7-----|


Bridge:

E-------------------------------------------------------|
B-------------------------------------------------------|
G-------------------------------------------------------|
D--5--5--5--5--5--5--5--5--5--5--5--5--5--5--5--5--5----|
A--5--5--5--5--5--5--5--5--5--5--5--5--5--5--5--5--5----|
E--7--7--7--7--7--7--7--7--7--7--7--7--7--7--7--7--7----|


E------------------------------------|
B------------------------------------|
G------------------------------------|   (3x)
D----6------4--------6-------8-------|
A----6------4--------6-------8-------|
E----8------6--------4--------6------|


Ending:

E-----------------------------------------------|
B-----------------------------------------------|
G-----------------------------------------------|
D--5--5--5--5--5--5--5--5--5--5--5--5--5--555---|
A--5--5--5--5--5--5--5--5--5--5--5--5--5--555---|
E--7--7--7--7--7--7--7--7--7--7--7--7--7--777---|
Tap to rate this tab
# A B C D E F G H I J K L M N O P Q R S T U V W X Y Z