Song name
# A B C D E F G H I J K L M N O P Q R S T U V W X Y Z

Simple Plan - I Wont Be There tab

I Won’t Be There 
Simple Plan
no pads, no helmets
tabbed by athsmador
anothervivacarter@yahoo.com

intro
Gtr. 1 (use wah n flanger)
this repeats at various parts in the song
eb|--0-7-0-5-0-4-0----0-5-0-4-0-5-0----|
Bb|-0----------------0-----------------|
Gb|------------------------------------|
Db|------------------------------------|
Ab|------------------------------------|
Eb|------------------------------------|

Gtr. 2
eb|---------------------------------------------------------|
Bb|---------------------------------------------------------|
Gb|----2-2-2-6-4---4-2-4---4-2-4-6-4-2-4-6---------6-4------|
Db|-2--2-2-2-6-4-2-4-2-4-2-4-2-4-6-4-2-4-6-6-7-7-7-6-4-2----|
Ab|-2--0-0-0-4-2-2-2-0-2-2-2-0-2-4-2-0-2-4-6-7-7-7-4-2-2----|
Eb|-0------------0-------0-----------------4-5-5-5-----0----|

pre-chorus (Both gtrs)
eb|-----------------------------------------------------------------------------|
Bb|-----------------------------------------------------------------------------|
Gb|-xxxxx-x-------4-22222-4-------4-22222-4--------------------2222222222222222-|
Db|-xxxxx-x-22222-4-22222-4-22222-4-22222-4--22222222-44444444-2222222222222222-|
Ab|-xxxxx-x-22222-2-00000-2-22222-2-00000-2--22222222-44444444-0000000000000000-|
Eb|---------00000-----------00000------------00000000-22222222------------------|

chorus (both)
eb|------------------|
Bb|------------------|
Gb|----44------------|
Db|-22-44-77-7676----|
Ab|-22-22-77-7676----|
Eb|-00----55-5454----|  (x2)

eb|----------------------------------------|
Bb|----------------------------------------|
Gb|-------4444----------22222222-44444444--|
Db|--2222-4444-44444444-22222222-44444444--|
Ab|--2222-2222-44444444-00000000-22222222--|
Eb|--0000------22222222--------------------|

pre-verse(Gtr 2)
eb|------------------------|
Bb|------------------------|
Gb|---4-2-4---4-2-4--------|
Db|-2-4-2-4-2-4-2-4-2------|
Ab|-2-2-0-2-2-2-0-2-2------|
Eb|-0-------0-------0------|


for the bridge look at the other tabs

outro (gtr 2)
eb|----------------------------------|
Bb|----------------------------------|
Gb|---4-2-4---4-2-4---4-2-4---4-2----|
Db|-2-4-2-4-2-4-2-4-2-4-2-4-2-4-2----|
Ab|-2-2-0-2-2-2-0-2-2-2-0-2-2-2-0----|
Eb|-0-------0-------0-------0--------|

Tap to rate this tab
# A B C D E F G H I J K L M N O P Q R S T U V W X Y Z