Song name
# A B C D E F G H I J K L M N O P Q R S T U V W X Y Z

Simple Plan - Save You tab

Hi, this is my first tab :)
I corrected it a little bit from other tabs. I think it sounds better that way and it's 
easier too :)
Please give me feedback with rate & comment :)

e|----------------------------------|--------------------------------------|
B|-------------8--------------------|-------------8---8-9-8----------------|
G|-----10-8------8----8---10---8----|-----10-8------8-------10-8h10h8------|
D|--/8-------8------8---8----8---8--|--/8-------8--------------------------|
A|----------------------------------|--------------------------------------|
E|----------------------------------|--------------------------------------|

e|--------------------------------------|
B|-------------8-------------8----------|
G|-----10-8------8----8---10---10-8-----|
D|--/8-------8------8---8---------------|
A|--------------------------------------|
E|--------------------------------------|
Tap to rate this tab
 
# A B C D E F G H I J K L M N O P Q R S T U V W X Y Z