Song name
# A B C D E F G H I J K L M N O P Q R S T U V W X Y Z

Simple Plan - God Must Hate Me tab

God Must Hate Me Intro

I couldn't find a good intro for this amazing song of simple plan, so i did this one and 
sure that it's almost 100% right. This is my first tab so please go easy on me. Any 
or something simplepunk31@hotmail.com


e|-12-12-----12-12-----14-14-14--13-13--12-12--11--|
B|-------13--------13------------------------------|
G|-------------------------------------------------|
D|-------------------------------------------------|
A|-------------------------------------------------|
E|-------------------------------------------------|

e|-12-12-----12-12-----13-13-13-13-13-13--14-14-14-|
B|-------13--------13------------------------------|
G|-------------------------------------------------|
D|-------------------------------------------------|
A|-------------------------------------------------|
E|-------------------------------------------------|

e|-12-12-----12-12-----14-14-14--13-13--12-12--11--|
B|-------13--------13------------------------------|
G|-------------------------------------------------|
D|-------------------------------------------------|
A|-------------------------------------------------|
E|-------------------------------------------------|

e|-12-12-----12-12-----13-13-13-13-13-13--14-14-14-14~|
B|-------13--------13---------------------------------|
G|----------------------------------------------------|
D|----------------------------------------------------|
A|----------------------------------------------------|
E|----------------------------------------------------|
Tap to rate this tab
# A B C D E F G H I J K L M N O P Q R S T U V W X Y Z