Guitaretab - guitar tabs
Song name
# A B C D E F G H I J K L M N O P Q R S T U V W X Y Z

Simple Plan - Happy Together Live tab

	                HAPPY TOGETHER - Simple Plan

Artist: Simple Plan
Song: Happy Together (Cover of Happy Together by the Turtles)

I really like this cover of this classic song. Here is how they play it live.

Tuning: Standard

They use a lot of effect pedals when live, both guitars have a reverb effect on most of the performance

Chords:

A5  Em   D5   Db5/C#5    B5
x   x    x      x        x
x   x    x      x        x
x   x    7      6        4
7   2    7      6        4
7   2    5      4        2
5   0    x      x        x


INTRO: It sounds like single notes OR it could be in octives, w/e you think
           	 	              
Guitar 1 
e|------|------------------------|---------------|
B|------|------------------------|---------------|
G|------|------------------------|---------------|
D|------|------------------------|---------------|
A|--7/--|-7---9-7/17-17-16-14-16-|-7---9-7-7/17/-|
E|------|------------------------|---------------|

Guitar 2: A5  Em  D5 D5 Db5B5 Db5  A5  Em    D5


VERSE 1:

Guitar 1: Play this twice
e|-------------------|------------------|---------------|------------------|
B|-------------------|------------------|---------------|------------------|
G|-------------------|------------------|---------------|------------------|
D|----------------11-/-9--------------9-/-7-----------7-/-6----------------|
A|-9-9-9--9-9-99-9--/-7-7-7--7-7-7-77-/-5-5-5-5-5-5-5-/-4-4-4--4-4-4-4-4-|
E|-------------------|------------------|---------------|------------------|
PM * * *  * * * *        * *  * * * *       * * * * *       * *  * * * *

Guitar 2 -Comes in on second repeating w/ a heavy delay/echo effect
e|-----------|-----------|---------|-----|
B|-------9~--|-------9~--|------5~-|-----|
G|----9------|-----9-----|----7----|-10~-|
D|-11--------|--11-------|--7------|-----|
A|-----------|-----------|---------|-----|
E|-----------|-----------|---------|-----|Not sure if this is 100% correct

CHORUS:
e|-----------------------------------|    |------|
B|-----------------------------------|    |------|
G|-----------------------------------|    |------|
D|--4-4-4-4-2-2-2-2-4-4-4-4-7-7-7-7--|    |--7/--|
A|--4-4-4-4-2-2-2-2-4-4-4-4-7-7-7-7--|    |--7/--|
E|--2-2-2-2-0-0-0-0-2-2-2-2-5-5-5-5--| x2 |--5/--|

VERSE 2:
[ Tab from: http://www.guitaretab.com/s/simple-plan/95430.html ]
Guitar 1 - First part - Play this palm muted
e|--------------------------------------------------|
B|--------------------------------------------------|
G|--------------------------------------------------|
D|-11-11---11--11--9-9--9--9--7-7--7--7--6-6--6--6~-|
A|-9--9----9---9--7-7--7--7--5-5--5--5--4-4--4--4~-|
E|--------------------------------------------------| 
 |
Guitar 2 
e|--------------------------------------------------|
B|--------------------------------------------------|
G|--x-x-x-x-x-x-x-x-x-x-x-x-x-x-x-x-x-x-x--x-x--x-x-|
D|--x-x-x-x-x-x-x-x-x-x-x-x-x-x-x-x-x-x-x-x-x-x-x-x-|
A|--x-x-x-x-x-x-x-x-x-x-x-x-x-x-x-x-x-x-x-x-x-x-x-x-|
E|--------------------------------------------------| 

Guitar 1 - First part - Play this palm muted
e|--------------------------------------------------|
B|--------------------------------------------------|
G|--------------------------------------------------|
D|-11-11---11--11--9-9--9--9--7-7--7--7--6-6--6--6~-|
A|-9--9----9---9--7-7--7--7--5-5--5--5--4-4--4--4~-|
E|--------------------------------------------------| 
 |

Guitar 2 -Comes in on second repeating w/ a heavy delay/echo effect
e|-----------|-----------|---------|-----|
B|-------9~--|-------9~--|------5~-|-----|
G|----9------|-----9-----|----7----|-10~-|
D|-11--------|--11-------|--7------|-----|
A|-----------|-----------|---------|-----|
E|-----------|-----------|---------|-----|

REPEAT CHORUS

SOLO: SORRY! couldn't work out Guitar 1, rhythm guitar

Guitar 2
e|-----------------|----------|--------------------|
B|-----------------|-------12-|-14-12----15-14-12--|
G|-----------------|-11-14----|-------14-----------|
D|---------9-11-12-|----------|--------------------|
A|-9-11-12---------|----------|--------------------|
E|-----------------|----------|--------------------|

e|----------|-----------------------------|
B|-------12-|-14-12----17-17-17---17/14~~-|
G|-11-14----|-------14--------------------|
D|----------|-----------------------------|
A|----------|-----------------------------|
E|----------|-----------------------------|

BRIDGE:

Guitar 2 Clean

e|--5-4-2---5-4-2--|
B|-----------------|
G|-----------------|
D|-----------------|
A|-----------------|
E|-----------------|x2


Guitar 1 - After guitar 2
e|--------------------------|
B|--------------------------|
G|--6:-6:-6-6-6-6--6-6-6-6--|
D|--6:-6:-6-6-6-6--6-6-6-6--|
A|--4:-4:-4-4-4-4--4-4-4-4--|
E|--------------------------|

CHORUS 2x

Guitar 2 
e|-------|
B|--14b--|
G|-------|
D|-------|
A|-------|
E|-------| play until the outro

Outro:
Guitar 1 
e|-----------------|
B|-----------------|
G|-6-6-6-6---------|
D|-6-6-6-6-4-4-4-4-|
A|-4-4-4-4-4-4-4-4-|
E|---------2-2-2-2-| x6
Related for Happy Together Live tab