Song name
# A B C D E F G H I J K L M N O P Q R S T U V W X Y Z

Simple Plan - Saturday Home Fight tab

 This is the Saturday Home Fight guitar tab. Hope you like it to hear the
 song go to www.myspace.com/libertydeepdown

Enjoy!
                         Intro
  |-----------------------------------------------------------------|
  |-----------------------------------------------------------------|
  |-----------------------------------------------------------------|
  |---------6--6--6--6-----8--8--8--8------10--10--10--10-----------|
  |---------6--6--6--6-----8--8--8--8------10--10--10--10-----------|
  |---------4--4--4--4-----6--6--6--6-------8---8---8---8-----------|

  |-----------------------------------------------------------------|
  |-----------------------------------------------------------------|
  |-----------------------------------------------------------------|
  |---------6--6--6--6-----8--8--8--8------10--10--10--10-----------|
  |---------6--6--6--6-----8--8--8--8------10--10--10--10-----------|
  |---------4--4--4--4-----6--6--6--6-------8---8---8---8-----------|

  |-----------------------------------------------------------------|
  |-----------------------------------------------------------------|
  |-----------------------------------------------------------------|
  |---------6--6--6--6-----8--8--8--8------10--10--10--10-----------|
  |---------6--6--6--6-----8--8--8--8------10--10--10--10-----------|
  |---------4--4--4--4-----6--6--6--6-------8---8---8---8-----------|

  |-----------------------------------------------------------------|
  |-----------------------------------------------------------------|
  |-----------------------------------------------------------------|
  |---------6--6--6--6-----8--8--8--8------10--10--10--10-----------|
  |---------6--6--6--6-----8--8--8--8------10--10--10--10-----------|
  |---------4--4--4--4-----6--6--6--6-------8---8---8---8-----------|

    Then slide from the 15 fret and down to the 1st

  |-----------------------------------------------------------------|
  |-----------------------------------------------------------------|
  |-----------------------------------------------------------------|
  |--6--6------8--8-----4---6--6------8--8-----4-------6--8--10-10--|
  |--6--6------8--8-----4---6--6------8--8-----4-------6--8--10-10--|
  |--4--4------6--6-----2---4--4------6--6-----2-------4--6---8--8--|
                     verse
            I'm lying on the dirt desprate for love
  |-----------------------------------------------------------------|
  |-----------------------------------------------------------------|
  |-----------------------------------------------------------------|
  |---------6--6--6--6-----8--8--8--8------10--10--10--10-----------|
  |---------6--6--6--6-----8--8--8--8------10--10--10--10-----------|
  |---------4--4--4--4-----6--6--6--6-------8---8---8---8-----------|

  |-----------------------------------------------------------------|
  |-----------------------------------------------------------------|
  |-----------------------------------------------------------------|
  |---------6--6--6--6-----8--8--8--8------10--10--10--10-----------|
  |---------6--6--6--6-----8--8--8--8------10--10--10--10-----------|
  |---------4--4--4--4-----6--6--6--6-------8---8---8---8-----------|

  |-----------------------------------------------------------------|
  |-----------------------------------------------------------------|
  |-----------------------------------------------------------------|
  |---------6--6--6--6-----8--8--8--8------10--10--10--10-----------|
  |---------6--6--6--6-----8--8--8--8------10--10--10--10-----------|
  |---------4--4--4--4-----6--6--6--6-------8---8---8---8-----------|

  |-----------------------------------------------------------------|
  |-----------------------------------------------------------------|
  |-----------------------------------------------------------------|
  |---------6--6--6--6-----8--8--8--8------10--10--10--10-----------|
  |---------6--6--6--6-----8--8--8--8------10--10--10--10-----------|
  |---------4--4--4--4-----6--6--6--6-------8---8---8---8-----------|
                     (PreChorus)
     I'm looking at the animals and i see still i'm the only one alone
  |-----------------------------------------------------------------|
  |-----------------------------------------------------------------|
  |-----------------------------------------------------------------|
  |---------6--6--6--6-----10-10-10-10--------8--8--8--8------------|
  |---------6--6--6--6-----10-10-10-10--------8--8--8--8------------|
  |---------4--4--4--4-----8--8--8--8---------6--6--6--6------------|

  |-----------------------------------------------------------------|
  |-----------------------------------------------------------------|
  |-----------------------------------------------------------------|
  |---------6--6--6--6-----10-10-10-10--------8--8--8--8------------|
  |---------6--6--6--6-----10-10-10-10--------8--8--8--8------------|
  |---------4--4--4--4-----8--8--8--8---------6--6--6--6------------|

  |-----------------------------------------------------------------|
  |-----------------------------------------------------------------|
  |-----------------------------------------------------------------|
  |---------6--6--6--6-----10-10-10-10--------8--8--8--8------------|
  |---------6--6--6--6-----10-10-10-10--------8--8--8--8------------|
  |---------4--4--4--4-----8--8--8--8---------6--6--6--6------------|


                            (Chorus)
         Runaway    doing it cause i don't       want to stay
  |-----------------------------------------------------------------|
  |-----------------------------------------------------------------|
  |-----------------------------------------------------------------|
  |----6--6--6--6-----4--4--4--4------8--8--8--8------6--6--6--6----|
  |----6--6--6--6-----4--4--4--4------8--8--8--8------6--6--6--6----|
  |----4--4--4--4-----2--2--2--2------6--6--6--6------4--4--4--4----|

   I'm all night for my saturday home fight whick be will be alright
  |-----------------------------------------------------------------|
  |-----------------------------------------------------------------|
  |-----------------------------------------------------------------|
  |----6--6--6--6-----4--4--4--4------8--8--8--8------6--6--6--6----|
  |----6--6--6--6-----4--4--4--4------8--8--8--8------6--6--6--6----|
  |----4--4--4--4-----2--2--2--2------6--6--6--6------4--4--4--4----|

  |-----------------------------------------------------------------|
  |-----------------------------------------------------------------|
  |-----------------------------------------------------------------|
  |--6--6------8--8-----4---6--6------8--8-----4-------6--8--10-10--|
  |--6--6------8--8-----4---6--6------8--8-----4-------6--8--10-10--|
  |--4--4------6--6-----2---4--4------6--6-----2-------4--6---8--8--|

                Verse
  If you enter my world you will see you will see no one smiling
  |-----------------------------------------------------------------|
  |-----------------------------------------------------------------|
  |-----------------------------------------------------------------|
  |---------6--6--6--6-----8--8--8--8------10--10--10--10-----------|
  |---------6--6--6--6-----8--8--8--8------10--10--10--10-----------|
  |---------4--4--4--4-----6--6--6--6-------8---8---8---8-----------|

  |-----------------------------------------------------------------|
  |-----------------------------------------------------------------|
  |-----------------------------------------------------------------|
  |---------6--6--6--6-----8--8--8--8------10--10--10--10-----------|
  |---------6--6--6--6-----8--8--8--8------10--10--10--10-----------|
  |---------4--4--4--4-----6--6--6--6-------8---8---8---8-----------|

  |-----------------------------------------------------------------|
  |-----------------------------------------------------------------|
  |-----------------------------------------------------------------|
  |---------6--6--6--6-----8--8--8--8------10--10--10--10-----------|
  |---------6--6--6--6-----8--8--8--8------10--10--10--10-----------|
  |---------4--4--4--4-----6--6--6--6-------8---8---8---8-----------|

  |-----------------------------------------------------------------|
  |-----------------------------------------------------------------|
  |-----------------------------------------------------------------|
  |---------6--6--6--6-----8--8--8--8------10--10--10--10-----------|
  |---------6--6--6--6-----8--8--8--8------10--10--10--10-----------|
  |---------4--4--4--4-----6--6--6--6-------8---8---8---8-----------|
                               (PreChorus)
                    If you just bright it up
  |-----------------------------------------------------------------|
  |-----------------------------------------------------------------|
  |-----------------------------------------------------------------|
  |---------6--6--6--6-----10-10-10-10--------8--8--8--8------------|
  |---------6--6--6--6-----10-10-10-10--------8--8--8--8------------|
  |---------4--4--4--4-----8--8--8--8---------6--6--6--6------------|

          it would help my life and i would do it for you
  |-----------------------------------------------------------------|
  |-----------------------------------------------------------------|
  |-----------------------------------------------------------------|
  |---------6--6--6--6-----8--8--8--8--------10-10-10-10------------|
  |---------6--6--6--6-----8--8--8--8--------10-10-10-10------------|
  |---------4--4--4--4-----6--6--6--6----------8--8--8--8-----------|
  (Chorus)
         Runaway    doing it cause i don't       want to stay
  |-----------------------------------------------------------------|
  |-----------------------------------------------------------------|
  |-----------------------------------------------------------------|
  |----6--6--6--6-----4--4--4--4------8--8--8--8------6--6--6--6----|
  |----6--6--6--6-----4--4--4--4------8--8--8--8------6--6--6--6----|
  |----4--4--4--4-----2--2--2--2------6--6--6--6------4--4--4--4----|

   I'm all night for my saturday home fight whick be will be alright
  |-----------------------------------------------------------------|
  |-----------------------------------------------------------------|
  |-----------------------------------------------------------------|
  |----6--6--6--6-----4--4--4--4------8--8--8--8------6--6--6--6----|
  |----6--6--6--6-----4--4--4--4------8--8--8--8------6--6--6--6----|
  |----4--4--4--4-----2--2--2--2------6--6--6--6------4--4--4--4----|
                    (Chorus)
  |-----------------------------------------------------------------|
  |-----------------------------------------------------------------|
  |-----------------------------------------------------------------|
  |--6--6------8--8-----4---6--6------8--8-----4-------6--8--10-10--|
  |--6--6------8--8-----4---6--6------8--8-----4-------6--8--10-10--|
  |--4--4------6--6-----2---4--4------6--6-----2-------4--6---8--8--|

  (Chorus)
         Runaway    doing it cause i don't       want to stay
  |-----------------------------------------------------------------|
  |-----------------------------------------------------------------|
  |-----------------------------------------------------------------|
  |----6--6--6--6-----4--4--4--4------8--8--8--8------6--6--6--6----|
  |----6--6--6--6-----4--4--4--4------8--8--8--8------6--6--6--6----|
  |----4--4--4--4-----2--2--2--2------6--6--6--6------4--4--4--4----|

   I'm all night for my saturday home fight whick be will be alright
  |-----------------------------------------------------------------|
  |-----------------------------------------------------------------|
  |-----------------------------------------------------------------|
  |----6--6--6--6-----4--4--4--4------8--8--8--8------6--6--6--6----|
  |----6--6--6--6-----4--4--4--4------8--8--8--8------6--6--6--6----|
  |----4--4--4--4-----2--2--2--2------6--6--6--6------4--4--4--4----|

  |-----------------------------------------------------------------|
  |-----------------------------------------------------------------|
  |-----------------------------------------------------------------|
  |--6--6------8--8-----4---6--6------8--8-----4-------6--8--10-10--|
  |--6--6------8--8-----4---6--6------8--8-----4-------6--8--10-10--|
  |--4--4------6--6-----2---4--4------6--6-----2-------4--6---8--8--|

  (Chorus)
         Runaway    doing it cause i don't       want to stay
  |-----------------------------------------------------------------|
  |-----------------------------------------------------------------|
  |-----------------------------------------------------------------|
  |----6--6--6--6-----4--4--4--4------8--8--8--8------6--6--6--6----|
  |----6--6--6--6-----4--4--4--4------8--8--8--8------6--6--6--6----|
  |----4--4--4--4-----2--2--2--2------6--6--6--6------4--4--4--4----|

   I'm all night for my saturday home fight whick be will be alright
  |-----------------------------------------------------------------|
  |-----------------------------------------------------------------|
  |-----------------------------------------------------------------|
  |----6--6--6--6-----4--4--4--4------8--8--8--8------6--6--6--6----|
  |----6--6--6--6-----4--4--4--4------8--8--8--8------6--6--6--6----|
  |----4--4--4--4-----2--2--2--2------6--6--6--6------4--4--4--4----|

  |-----------------------------------------------------------------|
  |-----------------------------------------------------------------|
  |-----------------------------------------------------------------|
  |--6--6------8--8-----4---6--6------8--8-----4-------6--8--10-10--|
  |--6--6------8--8-----4---6--6------8--8-----4-------6--8--10-10--|
  |--4--4------6--6-----2---4--4------6--6-----2-------4--6---8--8--|

  |-----------------------------------------------------------------|
  |-----------------------------------------------------------------|
  |-----------------------------------------------------------------|
  |--6--6------8--8-----4---6--6------8--8-----4-------6--8--10-10--|
  |--6--6------8--8-----4---6--6------8--8-----4-------6--8--10-10--|
  |--4--4------6--6-----2---4--4------6--6-----2-------4--6---8--8--|

  |-----------------------------------------------------------------|
  |-----------------------------------------------------------------|
  |-----------------------------------------------------------------|
  |---------6--6--6--6-----8--8--8--8------10--10--10--10-----------|
  |---------6--6--6--6-----8--8--8--8------10--10--10--10-----------|
  |---------4--4--4--4-----6--6--6--6-------8---8---8---8-----------|

  |-----------------------------------------------------------------|
  |-----------------------------------------------------------------|
  |-----------------------------------------------------------------|
  |---------6--6--6--6-----8--8--8--8------10--10--10--10-----------|
  |---------6--6--6--6-----8--8--8--8------10--10--10--10-----------|
  |---------4--4--4--4-----6--6--6--6-------8---8---8---8-----------|

  |-----------------------------------------------------------------|
  |-----------------------------------------------------------------|
  |-----------------------------------------------------------------|
  |---------6--6--6--6-----10-10-10-10--------8--8--8--8------------|
  |---------6--6--6--6-----10-10-10-10--------8--8--8--8------------|
  |---------4--4--4--4-----8--8--8--8---------6--6--6--6------------|

  |-----------------------------------------------------------------|
  |-----------------------------------------------------------------|
  |-----------------------------------------------------------------|
  |---------6--6--6--6-----10-10-10-10--------8--8--8--8------------|
  |---------6--6--6--6-----10-10-10-10--------8--8--8--8------------|
  |---------4--4--4--4-----8--8--8--8---------6--6--6--6------------|
                              (Chorus)
Runaway    doing it cause i don't       want to stay
  |-----------------------------------------------------------------|
  |-----------------------------------------------------------------|
  |-----------------------------------------------------------------|
  |----6--6--6--6-----4--4--4--4------8--8--8--8------6--6--6--6----|
  |----6--6--6--6-----4--4--4--4------8--8--8--8------6--6--6--6----|
  |----4--4--4--4-----2--2--2--2------6--6--6--6------4--4--4--4----|

   I'm all night for my saturday home fight whick be will be alright
  |-----------------------------------------------------------------|
  |-----------------------------------------------------------------|
  |-----------------------------------------------------------------|
  |----6--6--6--6-----4--4--4--4------8--8--8--8------6--6--6--6----|
  |----6--6--6--6-----4--4--4--4------8--8--8--8------6--6--6--6----|
  |----4--4--4--4-----2--2--2--2------6--6--6--6------4--4--4--4----|

  |-----------------------------------------------------------------|
  |-----------------------------------------------------------------|
  |-----------------------------------------------------------------|
  |--6--6------8--8-----4---6--6------8--8-----4-------6--8--10-10--|
  |--6--6------8--8-----4---6--6------8--8-----4-------6--8--10-10--|
  |--4--4------6--6-----2---4--4------6--6-----2-------4--6---8--8--|

  |-----------------------------------------------------------------|
  |-----------------------------------------------------------------|
  |-----------------------------------------------------------------|
  |--6--6------8--8-----4---6--6------8--8-----4-------6--8--10-10--|
  |--6--6------8--8-----4---6--6------8--8-----4-------6--8--10-10--|
  |--4--4------6--6-----2---4--4------6--6-----2-------4--6---8--8--|

  |-----------------------------------------------------------------|
  |-----------------------------------------------------------------|
  |-----------------------------------------------------------------|
  |---------6--6--6--6-----8--8--8--8------10--10--10--10-----------|
  |---------6--6--6--6-----8--8--8--8------10--10--10--10-----------|
  |---------4--4--4--4-----6--6--6--6-------8---8---8---8-----------|

  |-----------------------------------------------------------------|
  |-----------------------------------------------------------------|
  |-----------------------------------------------------------------|
  |---------6--6--6--6-----8--8--8--8------10--10--10--10-----------|
  |---------6--6--6--6-----8--8--8--8------10--10--10--10-----------|
  |---------4--4--4--4-----6--6--6--6-------8---8---8---8-----------|

  Well i hoped you likes the tab. Please try to leave some comments.
  Thanks!
Tap to rate this tab
# A B C D E F G H I J K L M N O P Q R S T U V W X Y Z