Song name
# A B C D E F G H I J K L M N O P Q R S T U V W X Y Z

Simply Saucer - Bullet Proof Nothing tab

Beginning melody:

E-----------------------------------------------|
A-----------------------------------------------|
D---7-----12------------------------------------|
G---6-----11------------------------------------|
B---5-----10------------------------------------|
E---7-----12------------------------------------|
      (listen to song to get strumming)

Verses:

E-------------------|
A-------------------|
D---7-----12---10---|
G---6-----11----9---|
B---5-----10----8---|
E---7-----12---10---|
    (again listen for strumming)

Chorus:

E-----7-----7----7----7----|
A--5--9--7--9--5-9--7-9----|
D--7--9--9--9--7-9--9-9----|
G--7--8--9--8--7-8--9-8----|
B--7--7--9--7--7-7--9-7----|
E-----7-----7----7----7----|

Treat me like dirt, drive me insane
i said treat me like dirt, terrorize my brain

E-----7-----7----7----5----|
A--5--9--7--9--5-9--7-7----|
D--7--9--9--9--7-9--9-7----|
G--7--8--9--8--7-8--9-6----|
B--7--7--9--7--7-7--9-5----|
E-----7-----7----7----5----|

Treat me like dirt, im losing my mind
i said treat me like dirt,cause you're so fine

E--------------------3--1-----|
A--2-----------------5--3-----|
D--2-----------------5--3-----|     (4X)
G--1--2-1-2-1-2-4----4--2-----|
B--------------------3--1-----|
E--------------------3--1-----|

E------------------------|
A------------------------|
D-12---7-----------------|
G-11---6-----------------|
B-10---5-----------------|
E-12---7-----------------|
(this leads back into the beginning melody, followed by the verse and chorus part again)
Tap to rate this tab
# A B C D E F G H I J K L M N O P Q R S T U V W X Y Z