Song name
# A B C D E F G H I J K L M N O P Q R S T U V W X Y Z

Simply Tomas - Tafadhali tab

M2O(music to overdrive and simplytomas)
check em out on (http://www.youtube.com/watch?v=inDXIzC4NX0
                &  www.m2o.co.ke)

tune ua guitar a full step down (D tuning)
i think the major part sounds correct
where it does'nt sound right, please correct (email: embau90@gmail.com) 


intro F C G Am (plays out through the verses)
      F C G     
e|--------------|------------|-----------------------|------------|-------------|
B|----------1---|------------|-----------------------|--------1---|-------------|
G|------0h2---0-|--------0---|---------------------0-|----0h2---0-|--------0--0-|
D|--3-3---------|----0h2---0-|--------0--0h2---0h2---|3-3---------|----0h2------|
A|--------------|3-3---------|----0h2----------------|------------|3-3----------|
E|--------------|------------|3-3--------------------|------------|-------------|

enter verse

F          C        G            Am        F     
Iím moving on far away (far away, far away)
            C            G                   Am               F 
Looking for a place to stay (a place to stay, a place to stay)
             C           G               Am           F 
Coz you left me in the cold (In the cold, in the cold) 
           C          G              Am           F
and I had nowhere to go (where to go, where to go) 
        C             G                 Am             F
I had done nothing wrong (nothing wrong, nothing wrong) 
             C        G
I was just misunderstood


Chorus:


 F         G     Am    C      F     
And I see you coming back to me
  G     Am        C      F 
Singing out that ta fadhali
 G      Am       C       F    G    Am 
Hear me out na ni pe nafasi   E E-E E-E
      C     F  G    Am 
Ya kuji tetea A A-A A-A
  C      F  G    Am 
Ta fadhali E E-i-i



Verse 2:
 F        C         G              Am          F    
So predictable you are (so you are, so you are) 
             C                    G                    Am                F
Now that things are good you're back (good you're back, good you're back)
             C                 G     Am     F 
I didnít believe Iíd ever see you 
           C       G         Am       F
So predictable I am (so I am, so I am) 
            C               G                AM              F
Am just a sucker for your love (for your love, for your love) 
                 C                  G
There're some things that donít make sense.

Chorus:


  F         G     Am    C      F     
And I see you coming back to me
  G     Am        C      F 
Singing out that ta fadhali
 G      Am       C       F    G    Am 
Hear me out na ni pe nafasi   E E-E E-E
      C     F  G    Am 
Ya kuji tetea A A-A A-A
  C      F  G    Am 
Ta fadhali E E-i-i



Lead

play Am over this (F G AM C) if not solo 


e|------------5--7-7-7-7-7h8-8-|-----------5--7-8-7-5-------|
B|----6---8--------------------|---6---8--------------8-6-5-|
G|--5---5---5------------------|-5---5---5------------------|
D|-----------------------------|----------------------------|
A|-----------------------------|----------------------------|
E|-----------------------------|----------------------------|

e|------------5--7-7-7-7-7H8-8-|-8-7-5-7-5---5-------------------------------|  
B|----6---8--------------------|-----------8---8-6-8-6-5-6-5-----------------|
G|--5---5---5------------------|-----------------------------7--5-----5--7-5-|
D|-----------------------------|-----------------------------------7---------|
A|-----------------------------|---------------------------------------------|
E|-----------------------------|---------------------------------------------|


e|--------------------------------------------------------|
B|--6-5---5-----------------------------------------------|
G|------7---7-5-7-5---5---------------7/9/7-5---5-7-5-----|
D|------------------7---7-5-7-5---5-7---------7-------7---|
A|------------------------------7-------------------------|
E|--------------------------------------------------------|

e|----------------------------------------------------|
B|--6-5---5-------------------------------------5-6-8-|
G|------7---7-5-7-5---5---------------7/9/7-5-7-------|
D|------------------7---7-5---5---5-7-----------------|
A|--------------------------7---7---------------------|
E|----------------------------------------------------|


Chorus: X2


  F         G     Am    C      F     
And I see you coming back to me
  G     Am        C      F 
Singing out that ta fadhali
 G      Am       C       F    G    Am 
Hear me out na ni pe nafasi   E E-E E-E
      C     F  G    Am 
Ya kuji tetea A A-A A-A
  C      F  G    Am 
Ta fadhali E E-i-i


F G AM C X 4

Tap to rate this tab
 
# A B C D E F G H I J K L M N O P Q R S T U V W X Y Z