Song name
# A B C D E F G H I J K L M N O P Q R S T U V W X Y Z

Sin Bandera - Si Tu No Estas Aqui tab

Composed by Rosana Arbelo\Album-Pasado 
-I got annoyed of the other inverted tab,cleaned it up-Feel free to drop some feedback-
-Me enfade del tab extrano ya lo arregle-dejen su opinion porfa
-Juan--ML--


-INTRO-
e-----0-----3---3----------------0------3-----3---7-8-5----------|
B-1-3---1-----3---3-0-1---1-1-3----1-------3----3------------6---|
G--------0---------------2-----------0---------------------5-----|
D-----------------2-2---3---2-2--------------------------3-------|
A-----3-------2------------------3---------2----------3----------|
E---------------------1------------------------------------------|



   
  No     quiero estar sin ti       si tu no estas aqui
    c      Em      F                G
e---------------------------1-----------3------------------------|
B----1--------0-------1-------1--------3-3-----------------------|
G---0--------0-------2---2------------0---0----------------------|
D--2--------2-------3----------------0-----0---------------------|
A-3--------------------------------------------------------------|
E---------0--------1----------------3----------------------------|


     me sobra el aire
     c 
e-----------------3-3--------------------|
B----1------------3-3-1------------------|
G---0------------------0-----------------|
D--2-------------------------------------|
A-3----------------------0-2-3-----------|
E----------------------------------------|


C         Em      F
no quiero estar sin ti
G                                C
si tu no estas aqui me sobra el aire
C         Em     F
no quiero estar asi
G                               C
si tu no estas la gente se hace nadie

Em                F
si tu no estas aqui no se
G                       C
que diablos hago amandote
Em                F
si tu no estas aqui sabras
G
que Dios no va a entender porque te vas

C         Em      F
no quiero estar sin ti
G                                C
si tu no estas aqui me falta el sueño
C         Em     F
no quiero andar asi
G                               C
latiendo un corazon de amor sin dueño

Em                F
si tu no estas aqui no se
G                       C
que diablos hago amandote
Em                F
si tu no estas aqui sabras
G                                    F
que Dios no va a entender porque te vas

C                 Em
derramare mis sueños si algun dia no te tengo
F                     G         C
lo mas grande se hara lo mas pequeño
C                          F
paseare en un cielo sin estrellas esta vez
Dm                       G       Em           A7
tratando de entender quien hizo un infierno el PAraiso
F             G       C
no te vayas nunca porque no
Em           F
no puedo estar sin ti
G
si tu no estas aqui
C
Me quema el aire

Em                F
si tu no estas aqui sabras
G                        F         F-
que Dios no va a entender porque te vas

   C Em F
   C Em F            C
Si tu no estas... aquiii


e-----0----3-----------------------0-----3----3----7-8-5-----------|
B-1-3---1----3--3--0--1---1--1-3------1-----3---3-----------6------|
G--------0---------------2-------------0------------------5--------|
D---------------2--2----3----2-2-------------------------3---------|
A-----3------2---------------------3--------2----------3-----------|
E---------------------1--------------------------------------------|





Tap to rate this tab
# A B C D E F G H I J K L M N O P Q R S T U V W X Y Z