Guitaretab - guitar tabs
Song name
# A B C D E F G H I J K L M N O P Q R S T U V W X Y Z

Sin Bandera - Parte De Mi Corazon tab

E-----0-----------0-----------2---0---------------|
A-0-----------0-----------------------------------|
D-----2-2---------2---------------2-2-------0-----|
G-2-2-1-----1-2-2-1---------1-2-2-1-1-----1-------|
B-0-0-0----0--0-0-0-----2-0---0-0-0-----0------3--|
e---------0---------2-0---------------0--------2--|

E-------------0-----------------------------------|
A---------0---------------------------------------|
D-------------2-------0---------------------------|
G-2-----2-2-2-1-----1-----2-----2-----------------|
B-3---3---0-0-0---0-----3-3---3-------------------|
e-0-0-----------0-------2-0-0---------------------|

Yo naci marcado com tu amor, yo senti tu respiracion

   A2   E      D                 A2   E       D
E------0-----------------------------0-------------|
A--0-----------------------------0-----------------|
D------2-------0---------------------2-------0-----|
G--2-2-1-----1-----2-----2-------2-2-1-----1-----2-|
B--0-0-0---0-----3-3---3---------0-0-0---0-----3-3-|
e--------0-------2-0-0-----------------0-------0-0-|
yo creci sońando con tu piel     aprendi amarte sin

         A2  E            D
E------------0-------------------------------------|
A--------0-----------------------------------------|
D------------2-------0-----------------------------|
G-----2--2-2-1-----1-----2---2---------------------|
B---3----0-0-0---0-----3-3--3----------------------|
e-0------------0-------2-0-0-----------------------|
querer lo presenti tu tęnias que ser

[ Tab from: http://www.guitaretab.com/s/sin-bandera/80665.html ]
   A2   E       D         C#m
E-----0----------------4---------------------------|
A-0----------------------4------4------------------|
D-----2-------0------------------6-----------------|
G-2-2-1-----1-----2---------------6---6------------|
B-0-0-0---0-----3-3-3---------5----5-5-------------|
e-------0-------2-0-4--------4------4--------------|
supe que te hiba a conocer  y uma noche alfin

    F# F#7   Bm                 E
la luna se encendio te vi y fue magico.


==CORO==

       A        E          D                     A       E      D
te llevo en mi por siempre, fui hecho para ti yo te imaginaba asi.
       A        E          D                     A       E      D
estabas dentro mio, desde antes del amor ya eras parte de mi corazon.

2da parte 8 se arpegea =


    A2           E               A2         E
pensando en ti mil noches pase, la alma vi y te encontre,
 A2        E          D
eras tu la unica la misma.
   A2         E                 A2        E
desperte mi sueńo es realidad, descubri la felicidad,
   A2       E         D
el destino no podia fallar.
C#m               F#   F#7    Bm              E
hoy estas aqui y se que no te iras seras mi musica.

==CORO==

te llevo en mi por siempre fui hecho para ti yo te imaginaba asi
estabas dentro mio desde antes del amor ya eras parte de mi corazon.


E          C#m         F#                Bm            D
cada caricia amor estaba escrita con mi pasion de mi ecidad
E      C#m            F#                 Bm           D  E
en tu mirar hay dolor una erida, te conoci y ya eres mia.....

==CORO==

te llevo en mi por siempre fui hecho para ti yo te imaginaba asi
estabas dentro mio desde antes del amor ya eras parte de mi corazon.
Related for Parte De Mi Corazon tab