Song name
# A B C D E F G H I J K L M N O P Q R S T U V W X Y Z

Sin Dios - Casa Okupada Casa Encantada tab

Intro:
------- 
(Cm G)x2 (G# A# G# G)x2

Cm                           G
Somos los duendes que habitan en las casas abandonadas,
La propiedad privada es un robo, y lo nuestro arte de magia.

G#       A#     G#        G
Una casa okupada es una casa encantada,
Cuando haya un desalojo, aparecemos en otra.

El hechizo está en hacerlo todo con tus propias manos,
Convirtiendo cuatro muros en espacios liberados.

Una casa okupada es una casa encantada,
Cuando haya un desalojo, aparecemos en otra.

(Cm G)x2 (G# A# G# G)x2

Solo:
-----
Base:
-----
(Cm G)x2 (G# A# G# G)x2

--------------------------|--------------------|
----------------------4-6-|--8--------6--------|
--5--------5-5-5-5--5-----|--------------------|
--------------------------|--------------------|
--------------------------|--------------------|
--------------------------|--------------------|

--11-10-8-10--11---11-10-8-10--11---|--11g13--13--11--11--10--10----|
------------------------------------|-------------------------------|
------------------------------------|-------------------------------|
------------------------------------|-------------------------------|
------------------------------------|-------------------------------|
------------------------------------|-------------------------------|

--11-10-8------------L---|--13-11-10------------L---|
-------------------------|--------------------------|
-------------------------|--------------------------|
-------------------------|--------------------------|
-------------------------|--------------------------|
-------------------------|--------------------------|

--11-10-8---11-10-8---11-10-8---11-10-8---|
------------------------------------------|
------------------------------------------|
------------------------------------------|
------------------------------------------|
------------------------------------------|


---13-11-10-13-11-10-13-11-10-13-11-10-13-11-10-13-11-10-13-11-10-|
------------------------------------------------------------------|
------------------------------------------------------------------|
------------------------------------------------------------------|
------------------------------------------------------------------|
------------------------------------------------------------------|

--15-------|
-----------|
-----------|
-----------|
-----------|
-----------|

¡¡Eh, burgués especulador!! Vigila bien tus propiedades
No sea que cualquier día te encuentres a los duendes dentro...

Una casa okupada es una casa encantada,
Cuando haya un desalojo, aparecemos en otra...
Tap to rate this tab
 
# A B C D E F G H I J K L M N O P Q R S T U V W X Y Z