Song name
# A B C D E F G H I J K L M N O P Q R S T U V W X Y Z

Sinaloa - Seek Harbor tab

Band: Sinaloa
Song: Seek Harbor
label type: Indie
Tabbed by: Ruben Meijerink

This sounds the best when you pluck this with your fingers

|------------------------------------------------------------------|
|------------------------------------------------------------------|
|---17--17--17--17--14--14--14--14--14--14--14--14-----------------|
|---19--19--19--19--15--15--15--15--14--14--14--14--10--10--10--10-|
|---------------------------------------------------10--10--10--10-|
|------------------------------------------------------------------|

Fill (gtr.2):

|------------------|
|---------11-10-10-|
|--10-10-(10)------|
|------------------|
|------------------|
|------------------|



http://www.myspace.com/sinaloa
Tap to rate this tab
 
# A B C D E F G H I J K L M N O P Q R S T U V W X Y Z