Song name
# A B C D E F G H I J K L M N O P Q R S T U V W X Y Z

Since October - Guilty Acoustic tab

Hello, this is my first tab "guilty" by since october.
This is the acoustic version from the wccc live at planet of sound 5 album. Hope this is 
it is in Db tuning (Db Ab Db Gb Bb Eb).
any question email me at ryanmw107@aim.com.
I tried to figure out the strumming patterns but im not sure if theyre 100%.

-----------------------1--------------------------------------------------|
-----------1--------1---------------1-----------3-------------------------|
--------4--------2---------------0-----------0----------------------------|
-----2--------3---------------2-----------0-------------------------------|
--0------------------------3-----------2----------------------------------|
--------------------------------------------------------------------------|

-----------------------------------------1-1-1-1-----------------------|
--------1--1-1-1--------1--1-1-1------1--1-1-1-1----1-1-1-----3-3-3----|
------4----4-4-4------4----4-4-4----2----2-2-2-2----0-0-0-----0-0-0----|
----2------2-2-2----2------2-2-2--3------3-3-3-3----2-2-2-----0-0-0----|(3x)
--0--------0-0-0--0--------0-0-0------------------3-3-3-3---2-2-2-2----|
-----------------------------------------------------------------------|

------------1---------------------------|
--1---------1--------1--------3---------|
--4-(15x?)--2-(9x?)--0--------0---------|
--2---------3--------2-(4x?)--0-(4x?)---|
--0------------------3--------2---------|
----------------------------------------|

The chords make up the majority of the song after this point,
throwing in some picking here and there.
Tap to rate this tab
# A B C D E F G H I J K L M N O P Q R S T U V W X Y Z