Song name
# A B C D E F G H I J K L M N O P Q R S T U V W X Y Z

Since October - Live To Die tab

LIVE TO DIE
As recorded by Since October
(From the 2008 Album THIS IS MY HEART)
Transcribed by Aidan (hairhockey@hotmail.com)	Words and Music by Since October

Tuning : Dropped D, a half step down.  Or dropped Db (same thing)

This is my favorite song of Since Octobers This is My Heart, its pretty fun to play and 
a kickass song. Enjoy!

Gtr I (Db Ab Db Gb Bb Eb) - 'Distortion'
Gtr II (Db Ab Db Gb Bb Eb) - 'clean with effects'
 Intro
  Q=90
 4/4
  Gtr I
|---------------------------|-------------------------------------|
|---------------------------|-------------------------------------|
|---------------------------|-------------------------------------|
|---------------------------|-------------------------------------|
|---------------------------|---------------8---------10----------|
|-0-0--0-0-0--0-0--10-11-12-|-(12)\-0-x-x-x---0-10-12----12-11-10-|


|---------------------------|---------------------------------|
|---------------------------|---------------------------------|
|---------------------------|---------------------------------|
|---------------------------|---------------------------------|
|---------------------------|---------------8---------x-x-x-x-|
|-0-0--0-0-0--0-0--10-11-12-|-(12)\-0-x-x-x---0-10-12-x-x-x-x-|


    $
||----------------------------|---------------------------------------||
||o---------------------------|--------------------------------------o||
||----------------------------|---------------------------------------||
||----------------------------|---------------------------------------||
||o-0-0--0-0-0--0-0-----------|-------0-------8-0-------10-----------o||
||--0-0--0-0-0--0-0--10-11-12-|-(12)\-0-x-x-x---0-10-12----12-11-10---||


   Verse
||-----------------------------------|
||o----------------------------------|
||-----------------------------------|
||----12-----10-----10-----10-----10-|
||o-0----7s8----8s7----7s8----8s7----|
||--0--------------------------------|


                                    1.
                                     PM|             PM|
|----------------------------------|-------------------------------||
|----------------------------------|------------------------------o||
|----------------------------------|-------------------------------||
|---12-----10-----10-----10-----10-|-------------------------------||
|------7s8----8s7----7s8----8s7----|-8-8-10-10-10s12-5-5-7-7h8p7--o||
|-0--------------------------------|-8-8-------------5-5-----------||


  2.
  PM|             PM|
|-----------------------------|------------------------|
|-----------------------------|------------------------|
|-----------------------------|---------------------10-|
|-----------------------------|-----------------x-x-10-|
|-8-8-10-10-10s12-5-5-7-7h8p7-|-5---3-5-3-5---3-x-x--8-|
|-8-8-------------5-5---------|-0-0---0---0-0---x-x----|

   Chorus
The Chorus might be hard to play, listen to the song very closely to figure it out better.

            PM|   PM       PM                PM|   PM
||---------------------------------|-----------------------------|
||o--------------------------------|-----------------------------|
||---------------------------------|-----------------------------|
||------7-8------------------------|-----7-8---------------------|
||o-------------8---8-10-8---------|-------------8-------8-8-8-8-|
||--0-0-----7-8---0--------0-10-12-|-0-0-----7-8---0-8-8-8-8-8-8-|


  1.                   2.
                      D.S.
|--------------------||-------|
|-------------------o||-------|
|--------------------||-------|
|--------------------||-7-----|
|-8-8-8-5-5-----8-5-o||-5-----|
|-8-8-8-5-5-5-7---5--||-0-----|

After playing all of the above through once, go back to the verse and play it through 
before proceeding.


   Bridge
||----------------------------------|
||o---------------------------------|
||----------------------------------|
||--7-7-7-7-7-7-5-3-3-3-3-3-3-3-3-3-|
||o-5-5-5-5-5-5-3-1-1-1-1-1-1-1-1-1-|
||----------------------------------|


|------------------------------------------||
|-----------------------------------------o||
|------------------------------------------||
|-10-10-10-10-10-10-10-5-5-5-5-5-5-5-5-5---||
|--8--8--8--8--8--8--8-3-3-3-3-3-3-3-3-3--o||
|------------------------------------------||


|-------------------------------|-------------------------------------|
|-------------------------------|-------------------------------------|
|-------------------------------|-------------------------------------|
|-7-7--7-7--9-9--9-9--10-10--10-|-10--12-12-12-12-12-12-7-7--7-7--9-9-|
|-5-5--5-5--7-7--7-7---8--8---8-|--8--10-10-10-10-10-10-5-5--5-5--7-7-|
|-5-5--5-5--7-7--7-7---8--8---8-|--8--10-10-10-10-10-10-5-5--5-5--7-7-|


|---------------------------------------|---------------------------------|
|---------------------------------------|---------------------------------|
|---------------------------------------|-7-7-7-7-7-7-7-7-7-7-7-7-7-7-7-7-|
|--9-9--10-10--10-10--12-12-12-12-12-12-|-7-7-7-7-7-7-7-7-7-7-7-7-7-7-7-7-|
|--7-7---8--8---8--8--10-10-10-10-10-10-|-5-5-5-5-5-5-5-5-5-5-5-5-5-5-5-5-|
|--7-7---8--8---8--8--10-10-10-10-10-10-|-0-0-0-0-0-0-0-0-0-0-0-0-0-0-0-0-|


 Interlude
  >
|----------|------------------|---------------------|---------------------|
|----------|------------------|---------------------|---------------------|
|----------|------------------|---------------------|---------------------|
|----------|------------------|---------------------|---------------------|
|-5--------|-(5)--------------|--(5)----------------|---------------------|
|-0--------|-(0)--------------|--(0)----------------|---------------------|
|
| Gtr II
|----------|-13----12----(12)-|-(12)------(12)------|-10------(10)--------|
|----------|------------------|----------------8-10-|---------------------|
|----------|------------------|---------------------|--------------10-9---|
|----------|------------------|---------------------|---------------------|
|----------|------------------|---------------------|---------------------|
|----------|------------------|---------------------|---------------------|


  Gtr II
|-13---12-------|---------------------|-10------(10)-------|
|-----------13--|-(13)------(13)-8-10-|--------------------|
|---------------|---------------------|--------------10-9--|
|---------------|---------------------|--------------------|
|---------------|---------------------|--------------------|
|---------------|---------------------|--------------------|


|-13---12-------|-13---12-------|-13---12-------|
|-----------13--|-----------13--|-----------13--|
|---------------|---------------|---------------|
|---------------|---------------|---------------|
|---------------|---------------|---------------|
|---------------|---------------|---------------|


 Bridge
  Gtr I
|-------------------------------|------------------------------------|
|-------------------------------|------------------------------------|
|-------------------------------|------------------------------------|
|-------------------------------|------------------------------------|
|-----------------------------8-|--------------8---------10----------|
|-12-0-10-12-0-12-0-10-12-0-0---|-12-0-10-12-0---0-10-12----12-11-10-|


                                                   PM--------------------|
|-------------------------------|----------------------------------------|
|-------------------------------|----------------------------------------|
|-------------------------------|----------------------------------------|
|-------------------------------|----------------------------------------|
|-----------------------------8-|--------------12-12-12-12-12-12-12-12---|
|-12-0-10-12-0-12-0-10-12-0-0---|-12-0-10-12-0-12-12-12-12-12-12-12-12---|


||----------------------------------|
||o---------------------------------|
||----------------------------------|
||--7-7-7-7-7-7-5-3-3-3-3-3-3-3-3-3-|
||o-5-5-5-5-5-5-3-1-1-1-1-1-1-1-1-1-|
||----------------------------------|


|------------------------------------------||
|-----------------------------------------o||
|------------------------------------------||
|-10-10-10-10-10-10-10-5-5-5-5-5-5-5-5-5---||
|--8--8--8--8--8--8--8-3-3-3-3-3-3-3-3-3--o||
|------------------------------------------||


|-------------------------------|-------------------------------------|
|-------------------------------|-------------------------------------|
|-------------------------------|-------------------------------------|
|-7-7--7-7--9-9--9-9--10-10--10-|-10--12-12-12-12-12-12-7-7--7-7--9-9-|
|-5-5--5-5--7-7--7-7---8--8---8-|--8--10-10-10-10-10-10-5-5--5-5--7-7-|
|-5-5--5-5--7-7--7-7---8--8---8-|--8--10-10-10-10-10-10-5-5--5-5--7-7-|


|---------------------------------------|---------------------------------|
|---------------------------------------|---------------------------------|
|---------------------------------------|-7-7-7-7-7-7-7-7-7-7-7-7-7-7-7-7-|
|--9-9--10-10--10-10--12-12-12-12-12-12-|-7-7-7-7-7-7-7-7-7-7-7-7-7-7-7-7-|
|--7-7---8--8---8--8--10-10-10-10-10-10-|-5-5-5-5-5-5-5-5-5-5-5-5-5-5-5-5-|
|--7-7---8--8---8--8--10-10-10-10-10-10-|-0-0-0-0-0-0-0-0-0-0-0-0-0-0-0-0-|


   Outro
                                                                  3x
||----------------------------|-----------------------------------||
||o---------------------------|----------------------------------o||
||----------------------------|-----------------------------------||
||----------------------------|-----------------------------------||
||o-0-0--0-0-0--0-0-----------|-------0-x-0-0-0--0-0-x-x-x-x-x-x-o||
||--0-0--0-0-0--0-0--10-11-12-|-(12)\-0-x-0-0-0--0-0-x-x-x-x-x-x--||


|---------------------------|-------------*|
|---------------------------|-------------*|
|---------------------------|-------------*|
|---------------------------|-------------*|
|-0-0--0-0-0--0-0-----------|-------0-----*|
|-0-0--0-0-0--0-0--10-11-12-|-(12)\-0-----*|

Tablature Legend
----------------
 h   - hammer-on
 p   - pull-off
 b   - bend
 pb  - pre-bend
 r   - bend release (if no number after the r, then release immediately)
 /\  - slide into or out of (from/to "nowhere")
 s   - legato slide
 S   - shift slide
 - natural harmonic
[n]  - artificial harmonic
n(n) - tapped harmonic
 ~   - vibrato
 tr  - trill
 T   - tap
 TP  - trem. picking
 PM  - palm muting
\n/  - tremolo bar dip; n = amount to dip
 \n  - tremolo bar down
 n/  - tremolo bar up
/n\  - tremolo bar inverted dip
 =   - hold bend; also acts as connecting device for hammers/pulls
 <> - volume swell (louder/softer)
 x   - on rhythm slash represents muted slash
 o   - on rhythm slash represents single note slash

Misc Legend
-----------
 |  - bar
||  - double bar
||o - repeat start
o|| - repeat end
*|  - double bar (ending)
 :  - bar (freetime)
 $  - Segno
 &  - Coda
Tempo markers -  = BPM(8/16=s8/s16), where s8 = swing 8ths, s16 = swing 16ths
Tap to rate this tab
 
# A B C D E F G H I J K L M N O P Q R S T U V W X Y Z