Song name
# A B C D E F G H I J K L M N O P Q R S T U V W X Y Z

Since October - Disaster tab

DISASTER
As recorded by Since October
(From the 2008 Album THIS IS MY HEART)
	Words and Music by Since October


Gtr I (Db Ab Db Gb Bb Eb) - 'distortion'
Gtr II (Db Ab Db Gb Bb Eb) - 'clean'
Guitars tuned to drop Db, or dropped D a half step down.
 4/4
  Gtr I
INTRO
|-----------------------|-------------------|------------------------|
|-----------------------|-------------------|------------------------|
|-----------------------|-------------------|------------------------|
|-9-9-9----------9--9-9-|-------------9-9-9-|----------------------0-|
|-9-9-9-12-12-12-9--9-9-|-12-12-12-12-9-9-9-|-12-12-12-------------0-|
|-9-9-9----------9--9-9-|-------------9-9-9-|----------0-2-2-0-5-2---|


|-----------------------|-------------------|-----------------------------|
|-----------------------|-------------------|-----------------------------|
|-----------------------|-------------------|-----------------------------|
|-9-9-9----------9--9-9-|-------------9-9-9-|-----------------------------|
|-9-9-9-12-12-12-9--9-9-|-12-12-12-12-9-9-9-|-12-12-12-0-2-2-0-5-3-5-7-5--|
|-9-9-9----------9--9-9-|-------------9-9-9-|------------------------7-5--|


  Q=110
  Gtr II
Things in <>ís are harmonics
VERSE
|---------------------|-----------------------|
|---<7>-------<7>-----|---<7>-------<7>-------|
|-7-----<7>-6-----<7>-|-------<7>--------<7>--|
|---------------------|-9---------------------|
|---------------------|-----------------------|
|---------------------|-----------------------|


|---------------------|-----------------------|
|---<7>-------<7>-----|---<7>-------<7>-------|
|-7-----<7>-------<7>-|-------<7>--------<7>--|
|-----------9---------|-7---------------------|
|---------------------|-----------------------|
|---------------------|-----------------------|


    Gtr I
Pre-CHORUS
||------------------|-----------------|
||o-----------------|-----------------|
||------------------|-----------------|
||------------------|-----------------|
||o-9-9-9-9-9-9-9-9-|-7-7-7-7-7-7-7-7-|
||--9-9-9-9-9-9-9-9-|-7-7-7-7-7-7-7-7-|


|-----------------|----------------------||
|-----------------|---------------------o||
|-----------------|----------------------||
|-----------------|-----------7----------||
|-5-5-5-5-5-5-5-5-|-5-5---------5-5-5---o||
|-5-5-5-5-5-5-5-5-|-5-5-4-4-4------------||


CHORUS
|-------------------------|-------------|
|-------------------------|-------------|
|-------------------------|-------------|
|-9--9--11-11-11-11-12-12-|-5--5--5--5--|
|-9--9--------------------|-5--5--5--5--|
|-9--9--------------------|-5--5--5--5--|


|-------------------------|--------------|
|-------------------------|--------------|
|-------------------------|--------------|
|-9--9--11-11-11-11-12-12-|-7--9--4-4-7--|
|-9--9--------------------|-7-----4-4-7--|
|-9--9--------------------|-7-----4-4-7--|

						Bend the 2s into 4s gradually 
|-------------------------|-------------|-----------------|-------------------|
|-------------------------|-------------|-----------------|-------------------|
|-------------------------|-------------|-----------------|-------------------|
|-9--9--11-11-11-11-12-12-|-5--5--5--5--|-7-7-7-7-7-7-7-7-|-4-----------------|
|-9--9--------------------|-5--5--5--5--|-5-5-5-5-5-5-5-5-|-2-----------------|
|-9--9--------------------|-5--5--5--5--|-5-5-5-5-5-5-5-5-|-2--2-2-2-2-2-2-2--|

Interlude
|-----------------------------|------------------------------|------|
|-----------------------------|------------------------------|------|
|-----------------------------|------------------------------|------|
|-4-4-4-7-7-----4-4-4-6-6-----|-4-4-4-7-7-----4-4-4--6-6-----|-9----|
|-4-4-4-----5-5-4-4-4-----5-5-|-4-4-4-----5-5-4-4-4------5-5-|-7----|
|-4-4-4---------4-4-4---------|-4-4-4---------4-4-4----------|-7----|

Verse
|---------------------------------|-----------------------|
|---<7>-------<7>-------<7>-------|-<7>---------<7>-------|
|-7-----<7>-6-----<7>-------<7>---|------<7>--7-----<7>---|
|---------------------9-----------|---------------------9-|
|---------------------------------|-----------------------|
|---------------------------------|-----------------------|


|--------------------------|--------|
|-<7>-------<7>-------<7>--|--------|
|-----<7>-------<7>--------|-<7>----|
|---------7----------------|--------|
|--------------------------|--------|
|--------------------------|--------|

Here play the pre-chorus and chorus and interlude again before proceeding

|-----------------------|-------------------|------------------------|
|-----------------------|-------------------|------------------------|
|-----------------------|-------------------|------------------------|
|-9-9-9----------9--9-9-|-------------9-9-9-|----------------------0-|
|-9-9-9-12-12-12-9--9-9-|-12-12-12-12-9-9-9-|-12-12-12-------------0-|
|-9-9-9----------9--9-9-|-------------9-9-9-|----------0-2-2-0-5-2---|


|-----------------------|-------------------|-----------------------------|
|-----------------------|-------------------|-----------------------------|
|-----------------------|-------------------|-----------------------------|
|-9-9-9----------9--9-9-|-------------9-9-9-|-----------------------------|
|-9-9-9-12-12-12-9--9-9-|-12-12-12-12-9-9-9-|-12-12-12-0-2-2-0-5-3-5-7-5--|
|-9-9-9----------9--9-9-|-------------9-9-9-|------------------------7-5--|

another interlude thing
|-------------------------|-------------------------|
|-------------------------|-------------------------|
|-----4-4-4-4-4-4-4-4-4-4-|-------------------------|
|-4-4---------------------|-4-4-5-5-5-5-5-5-5-5-5-5-|
|-4-4---------------------|-4-4---------------------|
|-4-4---------------------|-4-4---------------------|
Back to the chorus!

Bridge
Ever time you save me somehow. . . 
|--------------|----------------||------------------|-------------------||
|--------------|----------------||o-----------------|------------------o||
|--------------|----------------||------------------|-------------------||
|-9--9-5-5-5-5-|-7--7-4-4-4-4-4-||--5-5-5-5-5-5-5-5-|-2-2-2-2-2-2-2-2---||
|-9--9-5-5-5-5-|-7--7-4-4-4-4-4-||o-5-5-5-5-5-5-5-5-|-2-2-2-2-2-2-2-2--o||
|-9--9-5-5-5-5-|-7--7-4-4-4-4-4-||--5-5-5-5-5-5-5-5-|-2-2-2-2-2-2-2-2---||

Outro
|-----7-7-7-7-7-7-7-7-7-7-|-------------------------|
|-------------------------|-----8-8-8-8-8-8-8-8-8-8-|
|-------------------------|-------------------------|
|-4-4---------------------|-4-4---------------------|
|-4-4---------------------|-4-4---------------------|
|-4-4---------------------|-4-4---------------------|


Tap to rate this tab
# A B C D E F G H I J K L M N O P Q R S T U V W X Y Z