Song name
# A B C D E F G H I J K L M N O P Q R S T U V W X Y Z

Since October - My Only tab

Since October
My Only
Life/Scars/Apologies

Verse:
E--------------------------------|
B-------4~-----------------------|
G---3h4--------4---3~-----6---3~-|
D------------2---2------4---4----|
A--------------------------------|
E-4------------------------------|

Pre-Chorus:
E--------------------------|
B--------------------------|
G--------------------------|
D-8~--9~---8~--9~---8~--9~-|
A-9~--9~---9~--9~---9~--9~-|
E-6~--7~---6~--7~---6~--7~-|

Chorus:
E---------------------------------|
B---------------------------------|
G---------------------------------|
D-99999999888888886666444422222222|
A-99999999999999996666444422222222|
E-77777777666666664444222200000000|

E-------------------------------------------|
B-------------------------------------------|
G-------------------------------------------|
D-99999999888888886666444422222222222222226~|
A-99999999999999996666444422222222222222226~|
E-77777777666666664444222200000000000000004~|

Break:
E---------------------------------|
B---------------------------------|
G---------------------------------|
D-66666666444444446666666622222222|
A-66666666444444446666666622222222|
E-44444444222222224444444400000000|

E-----------------------------------|
B-----------------------------------|
G-----------------------------------|
D-666666664444444499999999999999992~|
A-666666664444444499999999999999992~|
E-444444442222222277777777777777770~|

Final Chorus:
E-------------------------------------------------|
B-------------------------------------------------|
G-------------------------------------------------|
D-111111111111111110101010101010108888666644444444|
A-111111111111111111111111111111118888666644444444|
E--9-9-9-9-9-9-9-9-8-8-8-8-8-8-8-86666444422222222|

E-------------------------------------------------|
B-------------------------------------------------|
G-------------------------------------------------|
D-111111111111111110101010101010108888666644444444|
A-111111111111111111111111111111118888666644444444|
E--9-9-9-9-9-9-9-9-8-8-8-8-8-8-8-86666444422222222|

E--------------|
B--------------|
G--------------|
D-8~---6~---4~-|
A-8~---6~---4~-|
E-6~---4~---2~-|

Questions?
Email at cory.roesch@yahoo.com
Tap to rate this tab
 
# A B C D E F G H I J K L M N O P Q R S T U V W X Y Z