Song name
# A B C D E F G H I J K L M N O P Q R S T U V W X Y Z

Since October - The Way You Move tab

E--------------------------------------------------|
B----------------------------------------------7h8-|
G--------------------------------------------------|
D--0--1-0-1-0--0-0-1-0-1-0--0-1-0-1-0--0-4-5-------|
A--0--1-0-1-0--0-0-1-0-1-0--0-1-0-1-0--0-4-5-------|
D--0--1-0-1-0--0-0-1-0-1-0--0-1-0-1-0--0-4-5-------|

E---------------------------------------------------|
B----------------------------------------------7h8-7|
G---------------------------------------------------|
D--0--1-0-1-0--0-0-1-0-1-0--0-1-0-1-0--0-4-5--------|
A--0--1-0-1-0--0-0-1-0-1-0--0-1-0-1-0--0-4-5--------|
D--0--1-0-1-0--0-0-1-0-1-0--0-1-0-1-0--0-4-5--------|

I saw there is another intro tab, but the ending is wrong so i decided to put up the 
corrections, I'm 100% sure this is correct
Tap to rate this tab
 
# A B C D E F G H I J K L M N O P Q R S T U V W X Y Z