Song name
# A B C D E F G H I J K L M N O P Q R S T U V W X Y Z

Sincere - Killerboys On Acid tab

Help us improve GuitareTab! Take a short survey!
SONG: Killerboys On Acid
ARTIST: Sincere
TUNING: Standard
TABBER: Wesley Illegems (especially_rhcp@hotmail.com)



PM = palm mute
x = dead note

INTRO:

1st Guitar:                                                4x
e-|----------------------------------------------------------|
B-|------7--------------7--------------7---------------------|
G-|-------------6--------------6--------------6--------------|
D-|--4-4----4-4-----4-4----4-4-----4-4----4-4-----4-4-7-6-4--|
A-|----------------------------------------------------------|
E-|----------------------------------------------------------|


The 1st guitar is doubled after the first time:            3x
e-|----------------------------------------------------------|
B-|----------------------------------------------------------|
G-|----------------------------------------------------------|
D-|------4--------------4--------------4---------------------|
A-|-------------4--------------4--------------4--------------|
E-|--2-2----2-2-----2-2----2-2-----2-2----2-2-----2-2-5-4-2--|


2nd Guitar:
    |------------------------PM-------------------------|
e-|-------------|------------------------------------------|
B-|-------------|------------------------------------------|
G-|-------------|------------------------------------------|
D-|-------------|------------------------------------------|
A-|--4-4---4-4--|--4-4--4-4--4-4--4-4--4-4--4-4--4-4--4-4--|
E-|--2-2---2-2--|--2-2--2-2--2-2--2-2--2-2--2-2--2-2--2-2--|

    |-----------------PM------------------| 2x
e-|------------------------------------------|
B-|------------------------------------------|
G-|------------------------------------------|
D-|------------7-7--7-7--4-4--4-4------------|
A-|--4-4--4-4--5-5--5-5--2-2--2-2--7-7--6-6--| (I'm not sure about this...)
E-|--2-2--2-2----------------------5-5--4-4--|




1st Guitar:                        2x
e-|---------------------------------|
B-|--7-7-7---7-7-7---7-7-7---7-7-7--|
G-|--x-x-x---x-x-x---x-x-x---x-x-x--|
D-|--4-4-4---4-4-4---4-4-4---4-4-4--|
A-|---------------------------------|
E-|---------------------------------|

No doubling, no 2nd guitar



VERSE 1:

1st guitar:                     6x
e-|------------------------------|
B-|------------------------------|
G-|------------------------------|
D-|--------4-4---------6-6--6-6--|
A-|--4-4---2-2---7-7---4-4--4-4--|
E-|--2-2---------5-5-------------|
      I've been here waitin'...


after 4th time 2nd guitar kicks in:
(1st guitar just goes on like above)                              2x
e-|----------------------------------------------------------------|
B-|--7-7-7---7-7-7---7-7-7---7-7-7--7-7-7---7-7-7---7-7-7----------|
G-|--x-x-x---x-x-x---x-x-x---x-x-x--x-x-x---x-x-x---x-x-x--(break)-|
D-|--4-4-4---4-4-4---4-4-4---4-4-4--4-4-4---4-4-4---4-4-4----------|
A-|----------------------------------------------------------------|
E-|----------------------------------------------------------------|


last time no break but this:
G-|--6--| 
D-|--6--|
A-|--4--|
E-|--4--|
(both guitars)




CHORUS:

both guitars play the same stuff
(i don't know the rhythm, just do it ad-lib)

e-|-----------------------------------|
B-|-----------------------------------|
G-|----------4-4-4-4-7-7-7-7-6-6-9-9--|
D-|--4-4-4-4-4-4-4-4-7-7-7-7-6-6-9-9--|
A-|--4-4-4-4-2-2-2-2-5-5-5-5-4-4-7-7--|
E-|--2-2-2-2--------------------------|

     |-PM---|
e-|-------------------------------------|
B-|-------------------------------------|
G-|------------4-4-4-4-7-7-7-7-6-6-6-6--|
D-|--4-4--4-4--4-4-4-4-7-7-7-7-6-6-6-6--|
A-|--4-4--4-4--2-2-2-2-5-5-5-5-4-4-4-4--|
E-|--2-2--2-2---------------------------|

repeat this as often as necessary





AFTER THE FIRST CHORUS:

1st Guitar: (intro-riff again)                              2x
e-|----------------------------------------------------------|
B-|------7--------------7--------------7---------------------|
G-|-------------6--------------6--------------6--------------|
D-|--4-4----4-4-----4-4----4-4-----4-4----4-4-----4-4-7-6-4--|
A-|----------------------------------------------------------|
E-|----------------------------------------------------------|

2nd guitar:                     2x
e-|------------------------------|
B-|------------------------------|
G-|------------------------------|
D-|--------4-4---------7-7--6-6--|
A-|--4-4---2-2---7-7---5-5--4-4--|
E-|--2-2---------5-5-------------|






VERSE 2:
1st guitar:            this last chord sometimes changes (break, or other rhythm)
e-|------------------------------|
B-|------------------------------|
G-|------------------------------|
D-|--------4-4---------6-6--6-6--|
A-|--4-4---2-2---7-7---4-4--4-4--|
E-|--2-2---------5-5-------------|
      I've been here aching...


2nd guitar:
listen when to play this, it's not always there...
    |------PM-------|
e-|--------------------|
B-|--------------------|
G-|--------------------|
D-|--------------------|
A-|--------------------|
E-|--2-5-4-2--2-5-4-2--|





CHORUS:
just like the first one, except for the 2nd guitar, that always plays this:

e-|-----------|
B-|--7-7-7-7--|
G-|--x-x-x-x--|
D-|--4-4-4-4--|
A-|-----------|
E-|-----------|

just have a break when the 1st guitar has its PM-thing (when it screams "shut up" or something like 
that).





OUTRO:
when they start screaming "shut up" and so on, directly after the second chorus

1st guitar:                      2x
e-|-------------------------------|
B-|-------------------------------|
G-|--------4-4---7-7-7-7-6-6-6-6--|
D-|--4-4---4-4---7-7-7-7-6-6-6-6--|
A-|--4-4---2-2---5-5-5-5-4-4-4-4--|
E-|--2-2--------------------------|


2nd guitar:                                                 2x
e-|----------------------------------------------------------|
B-|------7--------------7--------------7---------------------|
G-|-------------6--------------6--------------6--------------|
D-|--4-4----4-4-----4-4----4-4-----4-4----4-4-----4-4-7-6-4--|
A-|----------------------------------------------------------|
E-|----------------------------------------------------------|


1st guitar:
e-|-----------------------------------|
B-|-----------------------------------|
G-|----------4-4-4-4-7-7-7-7-6-6-9-9--|
D-|--4-4-4-4-4-4-4-4-7-7-7-7-6-6-9-9--|
A-|--4-4-4-4-2-2-2-2-5-5-5-5-4-4-7-7--|
E-|--2-2-2-2--------------------------|

e-|-----------------------------------|
B-|-----------------------------------|
G-|----------4-4-4-4-7-7-7-7-6-6-6-6--|
D-|--4-4-4-4-4-4-4-4-7-7-7-7-6-6-6-6--|
A-|--4-4-4-4-2-2-2-2-5-5-5-5-4-4-4-4--|
E-|--2-2-2-2--------------------------|


second guitar:     8x
e-|-----------------|
B-|--7-7-7---7-7-7--|
G-|--x-x-x---x-x-x--|
D-|--4-4-4---4-4-4--|
A-|-----------------|
E-|-----------------|


both guitars:
e-|---------------------------------|
B-|---------------------------------|
G-|----------4-444-7-7-7-7-6-6-6-6--| (combine rhythm with this
D-|--4--444--4-444-7-7-7-7-6-6-6-6--|  drum-stuff, you know it)
A-|--4--444--2-222-5-5-5-5-4-4-4-4--|
E-|--2--222-------------------------|




That's pretty much it, hope it's right.
Related for Killerboys On Acid tab