Song name
# A B C D E F G H I J K L M N O P Q R S T U V W X Y Z

Sinch - To Die In Fall tab

Sinch
"To Die In Fall"
From the album "Sinch"
Tabbed by Joe Costello (jcostello86@gmail.com)

Comments before the tab (shameless promotion of the band actually). This cd is amazing,
probably the best I've bought or heard in quite some time. Mostly because Sinch sounds
like nothing else out there. It's definitely worth listening to so check it out. 
Anyways, on with the tab...

Tuning: Drop-D (low to high: D A D G B E)

Symbols Used:
(5) = harmonic
h = hammer-on
p = pull-off
. = palm mute
/ = Slide up
\ = Slide down
14b(16) = Bend 14th fret note to pitch of 16th fret
v = vibrato

Intro: Timing not shown, but listen to the song and you'll get it...
E|-----------------------|-----------------------|
B|-----------------------|-----------------------|
G|-----------------------|-----------------------|
D|-----------------------|-----------------------|
A|--------12-15----------|--------12-15-12-------|
D|--12-15----------------|--12-15----------------|

E|---------------------------------------|-------------------------------------|
B|---------------------------------------|-------------------------------------|
G|---------------------------------------|-------------------------------------|
D|-----------------15-15-15-15p14-14-14--|--------------------14b(16)----------|
A|--------12-15--------------------------|--------12-15-12---------------------|
D|--12-15--------------------------------|--12-15------------------------------|

Band Enters:
Riff 1:
E|-------------------------------------|---------------------------------------|
B|-------------------------------------|---------------------------------------|
G|-------------------------------------|---------------------------------------|
D|--------------------17b(19)----------|-----------------14-14-14--12-12-12----|
A|--------12-15------------------------|--------12-15--------------------------|
D|--12-15------------------------------|--12-15--------------------------------|

E|----------------------------------------|-----------------------------------|
B|----------------------------------------|-----------------------------------|
G|------------------------------17----17--|-----------------------------------|
D|------------------15v-15v--15----15-----|----------------------14b(16)------|
A|--------12-15---------------------------|--------12-15---12-----------------|
D|--12-15---------------------------------|--12-15----------------------------|

Verse Riff: 		  Play 8x
E|-------------------------------|
B|-------------------------------|
G|------------------------------*|
D|------------------------------*|
A|---------12h15------------15---|
D|---12h15---------12-12h15------|
     P.M.   .  .    .  .  .  .

Chorus: (Timing not shown... listen to the song)
E|--------------------------------------|----------------------------|----------------------|
B|--------------------------------------|----------------------------|----------------------|
G|--------------------------------------|----------------------------|----------------------|
D|---8-8-8-8-8-8--7--7--7--10--10--10---|----------------------------|----------------------|
A|---8-8-8-8-8-8--7--7--7--10--10--10---|-------12h15-15--------15---|-------12h15-15--15---|
D|---8-8-8-8-8-8--7--7--7--10--10--10---|-12h15-----------12h15------|-12h15----------------|

E|------------------------------------------------------------|
B|------------------------------------------------------------|
G|------------------------------------------------------------|
D|---8-8-8-8-8-8--7--7--7---3--3--3--5--5--5---0--------------|
A|---8-8-8-8-8-8--7--7--7---3--3--3--5--5--5---0--------------|
D|---8-8-8-8-8-8--7--7--7---3--3--3--5--5--5---0-(let ring)---|

Then Play Riff 1 once
Verse Riff 8x
Chorus 

Interlude: (At 1:48 into the song)
E|------------------------|------------------------|
B|------------------------|------------------------|
G|------------------------|------------------------|
D|------------------------|---------------10-10----|
A|----------------7-7-8---|---------------------8--|
D|----0---0---0-----------|----0---0---0-----------|
      .   .   .                .   .   .
That repeats a whole lot of times, then guitar stops playing at 2:05

Interlude 2: (At 2:13)
                     (4x)
E|----------------------|
B|----------------------|
G|------7---9-10-10-10-*|
D|--0------------------*|
A|--0---5---7--8--8--8--|
D|--0-------------------|

Interlude 3: (At 2:21)
			    (4x)
E|-----------------------------|
B|-----------------------------|
G|---------------9--9--9--9---*|
D|--8--8--8--8----------------*|
A|--8--8--8--8---7--7--7--7----|
D|--8--8--8--8-----------------|

Bridge:							    (4x)
E|-----------------------------|-------------------------------|
B|-----------------------------|-------------------------------|
G|----------4-----------4--4---|----------4-----------4--4--4--|
D|--0-2-3---4---0-2-3---4--4---|--0-2-3---4---0-2-3---4--4--4--|
A|--0-2-3---2---0-2-3---2--2---|--0-2-3---2---0-2-3---2--2--2--|
D|--0-2-3-------0-2-3----------|--0-2-3-------0-2-3------------|
    . . .       . . .             . . .       . . .

End of Bridge:
E|---------------------------------(5)-----|
B|---------------------------------(5)-----|
G|---------------------------------(5)-----|
D|---5--5--5--5-3--3--3--3--0--0-----------|
A|---5--5--5--5-3--3--3--3--0--0-----------|
D|---5--5--5--5-3--3--3--3--0--0-----------|

During the break, play the verse riff very lightly

Build up into last chorus:
			(4x)
E|------------------------|
B|------------------------|
G|------------------------|
D|--0-0-0-2-2-2-3-3-5-5---|
A|--0-0-0-2-2-2-3-3-5-5---|
D|--0-0-0-2-2-2-3-3-5-5---|
    P.M.  . . . . . . .

Last Chorus:
E|--------------------------------------|----------------------------|----------------------|
B|--------------------------------------|----------------------------|----------------------|
G|--------------------------------------|----------------------------|----------------------|
D|---8-8-8-8-8-8--7--7--7--10--10--10---|----------------------------|----------------------|
A|---8-8-8-8-8-8--7--7--7--10--10--10---|-------12h15-15--------15---|-------12h15-15--15---|
D|---8-8-8-8-8-8--7--7--7--10--10--10---|-12h15-----------12h15------|-12h15----------------|

E|--------------------------------------------|
B|--------------------------------------------|
G|--------------------------------------------|
D|---8-8-8-8-8-8--7--7--7---3--3--3--5--5--5--|
A|---8-8-8-8-8-8--7--7--7---3--3--3--5--5--5--|
D|---8-8-8-8-8-8--7--7--7---3--3--3--5--5--5--|

E|------------------------------------------------------------|
B|------------------------------------------------------------|
G|------------------------------------------------------------|
D|---8-8-8-8-8-8--7--7--7---3--3--3--5--5--5---0--------------|
A|---8-8-8-8-8-8--7--7--7---3--3--3--5--5--5---0--------------|
D|---8-8-8-8-8-8--7--7--7---3--3--3--5--5--5---0-(let ring)---|

And that's it. E-mail me with any comments, corrections, or anything else related to this tab.

-Joe
Tap to rate this tab
 
# A B C D E F G H I J K L M N O P Q R S T U V W X Y Z