Song name
# A B C D E F G H I J K L M N O P Q R S T U V W X Y Z

Sinch - One In The Same tab

Help us improve GuitareTab! Take a short survey!
Sinch
"One In The Same"
From the album "Clearing the Channel"
Tabbed by Joe Costello (jcostello86@gmail.com)

Tuning: Drop-D (low to high: D A D G B e)
 Note: This song can be played in standard tuning (and it might be), I just tabbed it in Drop-D since most 
of their songs are in Drop-D as well.

Symbols Used:
2* = let note/chord ring
<5> = harmonic
X = muted strings
h = hammer-on
p = pull-off
. = palm mute
/ = Slide up
\ = Slide down
4b(6) = Bend 4th fret note to pitch of 6th fret
v = vibrato

Intro/Verse: Riff 1:
(use a chorus/flanger pedal for best sound)
					(6x)
e|-----------------------------------------|
B|-----------------------------------------|
G|------------------------------7---------*|
D|---------0-----------------5-----5--5---*|
A|------9-----9----9\-----7-----------7----|
D|---9-------------9\----------------------|

At 0:31 play this (with distortion)
e|----------------------------|-------------------------------|
B|----------------------------|-------------------------------|
G|----------------------------|-------------------------------|
D|----5*------------2*--------|--7/9-9-9-X--7/10-10-9--X-7/9--|
A|----5*------------2*--------|--7/9-9-9-X--7/10-10-9--X-7/9--|
D|----5*------------2*--------|--7/9-9-9-X--7/10-10-9--X-7/9--|
   "a-      stray...."

Verse 2: play Riff 1 (4x)
Then play
e|---------------------------------------------|
B|---------------------------------------------|
G|---------------------------------------------|
D|---5--5--5-5-5-5--5--5--2--2--2-2-2-2--2--2--|
A|---5--5--5-5-5-5--5--5--2--2--2-2-2-2--2--2--|
D|---5--5--5-5-5-5--5--5--2--2--2-2-2-2--2--2--|
   "said.... 		               for you"

Pre-Chorus (with wah effect)
e|---------------------------------------------------|
B|---------------------------------------------------|
G|---4--4--4--4--4--4--4---9--9--9--9---11-11-11-11--|
D|---------------------------------------------------|
A|---2--2--2--2--2--2--2---7--7--7--7----9--9--9--9--|
D|---------------------------------------------------|
	   "Cause there's  nothing quite like you...

					  (w/distortion)
e|---------------------------------------|-------------------------------|
B|---------------------------------------|-------------------------------|
G|---4--4--4--4--4--4--4---9--9--9--9--9-|-------------------------------|
D|---------------------------------------|--7/9-9-9-X--7/10-10-9--X-7/9--|
A|---2--2--2--2--2--2--2---7--7--7--7--7-|--7/9-9-9-X--7/10-10-9--X-7/9--|
D|---------------------------------------|--7/9-9-9-X--7/10-10-9--X-7/9--|
	         "nothing quite like        You...

Chorus 1:
e|---------------------------|-------------------------------|
B|---------------------------|-------------------------------|
G|---------------------------|-------------------------------|
D|---5---5-------2-----2--2--|--7/9-9-9-X--7/10-10-9--X-7/9--|
A|---5---5-------2-----2--2--|--7/9-9-9-X--7/10-10-9--X-7/9--|
D|---5---5-------2-----2--2--|--7/9-9-9-X--7/10-10-9--X-7/9--|
   "We could    be one in the same         when...

e|---------------------------|--------------------------------|
B|---------------------------|--------------------------------|
G|---------------------------|--------------------------------|
D|---5---5-------14---14-14--|--/9-9-9-X--9/11-11-11--X-11/12-|
A|---5---5-------14---14-14--|--------------------------------|
D|---5---5-------14---14-14--|--/9-9-9-X--9/11-11-11--X-11/12-|
       we can't even            get the words right...

e|---------------------------|-------------------------------|
B|---------------------------|-------------------------------|
G|---------------------------|-------------------------------|
D|---5---5-------2-----2--2--|--7/9-9-9-X--7/10-10-9--X-7/9--|
A|---5---5-------2-----2--2--|--7/9-9-9-X--7/10-10-9--X-7/9--|
D|---5---5-------2-----2--2--|--7/9-9-9-X--7/10-10-9--X-7/9--|
       I've made my decisions   here   and  now..."

Then repeat the verse, and pre-chorus.

Chorus 2:
e|---------------------------|-------------------------------|
B|---------------------------|-------------------------------|
G|---------------------------|-------------------------------|
D|---5---5-------2-----2--2--|--7/9-9-9-X--7/10-10-9--X-7/9--|
A|---5---5-------2-----2--2--|--7/9-9-9-X--7/10-10-9--X-7/9--|
D|---5---5-------2-----2--2--|--7/9-9-9-X--7/10-10-9--X-7/9--|
   "We could    be one in the same         when...

e|---------------------------|--------------------------------|
B|---------------------------|--------------------------------|
G|---------------------------|--------------------------------|
D|---5---5-------14---14-14--|--/9-9-9-X--9/11-11-11--X-11/12-|
A|---5---5-------14---14-14--|--------------------------------|
D|---5---5-------14---14-14--|--/9-9-9-X--9/11-11-11--X-11/12-|
       we can't even            get the words right...

e|---------------------------|-------------------------------|
B|---------------------------|-------------------------------|
G|---------------------------|-------------------------------|
D|---5---5-------2-----2--2--|--7/9-9-9-X--7/10-10-9--X-7/9--|
A|---5---5-------2-----2--2--|--7/9-9-9-X--7/10-10-9--X-7/9--|
D|---5---5-------2-----2--2--|--7/9-9-9-X--7/10-10-9--X-7/9--|
       I've made my decisions   here   and  now...

e|----------------------------|
B|----------------------------|
G|----------------------------|
D|---5---5--------14---14-14--|
A|---5---5--------14---14-14--|
D|---5---5--------14---14-14--|
  ...why don't I listen to my fears?"

Bridge: (with distortion)
							     (2x)
e|--------------------------------------------------------------|
B|--------------------------------------------------------------|
G|-------------------------------------------------------------*|
D|---5----5----5----5----5--5-5-----2----2----2----2----2--2-2-*|
A|---5----5----5----5----5--5-5-----2----2----2----2----2--2-2--|
D|---5----5----5----5----5--5-5-----2----2----2----2----2--2-2--|
    "I'm  hiding in  signs       and hopes that won't fade
     We'll figure it out         somehow someday
     
e|--------------------------------------------------------------|
B|--------------------------------------------------------------|
G|---7----7----7----7----7--7-7---------------------------------|
D|----------------------------------2----2----2----2----2--2-2--|
A|---5----5----5----5----5--5-5-----2----2----2----2----2--2-2--|
D|----------------------------------2----2----2----2----2--2-2--|
             "If  I    can,             I'll ride...

e|----------------------------------------------------|
B|----------------------------------------------------|
G|----------------------------------------------------|
D|---5----5----5-----4--4b(6)r4---2*------------------|
A|---5----5----5------------------2*------------------|
D|---5----5----5------------------2*------------------|
         Till you   are          out on my side...

Verse 3:
e|-------------------------------------------------------|
B|-------------------------------------------------------|
G|--------------------------------------------7----------|
D|---------0-------------------------------5-----5--5----|
A|------9-----9----9\-------------------7-----------7----|
D|---9-------------9\------------------------------------|
                     "I'll drive if  you can't hardly wait...

                                                 (w/distortion)
e|---------------------------------------------|-------------------------------|
B|---------------------------------------------|-------------------------------|
G|---------------------------------------------|-------------------------------|
D|---------0---------------------------5*------|--7/9-9-9-X--7/10-10-9--X-7/9--|
A|------9-----9----9\------------------7*------|--7/9-9-9-X--7/10-10-9--X-7/9--|
D|---9-------------9\--------------------------|--7/9-9-9-X--7/10-10-9--X-7/9--|
                     To fall back into my arms...

After this, play the 2nd chorus, and then the bridge.
End by playing Riff 1 (2x), and holding the notes from the last chord.
And that should do it. If there's any questions, comments, etc, e-mail me.
Related for One In The Same tab