Song name
# A B C D E F G H I J K L M N O P Q R S T U V W X Y Z

Sinch - Passive Resistor tab

Sinch
"Passive Resistor"
From the album "Sinch"
Tab by Joe Costello (jcostello86@gmail.com)

This song has plenty of weird effects. But it's pretty easy to play.

Use Drop-D tuning (low to high D A D G B e)

Symbols used:
=============
<7> - harmonic
P.M.- palm mute

There's a long intro with no guitars, just a lot of weird noises and drums.

Verse 1- Riff 1 (at 0:58, with wah effect)
					       (6x)
e|------------------------------------------------|
B|----------------------------<7>--<7>--<7>--<7>--|
G|--11-11-11-11-10-10-10-10-----------------------|
D|------------------------------------------------|
A|---9--9--9--9--8--8--8--8-----------------------|
D|------------------------------------------------|

End of 1st verse: (at 1:20, with distortion)
e|-------------------------|
B|-------------------------|
G|-------------------------|
D|---3-2-0-2--0--3-2-0-2---|
A|---3-2-0-2--0--3-2-0-2---|
D|---3-2-0-2--0--3-2-0-2---|
P.M. . . . .  .  . . . .

Chorus- Riff 2 (with lots of distortion)
								 (4x)
e|---------------------------------|---------------------------------|
B|---------------------------------|---------------------------------|
G|-----------5--5------------------|-----------5--5------------------|
D|---1--1----5--5-----4--4--4--4---|---1--1----5--5-----4--4---------|
A|---1--1----3--3-----4--4--4--4---|---1--1----3--3-----4--4---------|
D|---1--1-------------4--4--4--4---|---1--1-------------4--4---------|

Verse 2- Play Riff 1 4 times
Chorus 2- Play Riff 2

Interlude- Riff 3 (with chorus effect)
													  (4x)
e|--------------------------|--------------------------|--------------------------|--------------------------|
B|----------15----------15--|----------15----------15--|----------15----------15--|----------15----------15--|
G|-------17----------17-----|-------17----------17-----|-------17----------17-----|-------17----------17-----|
D|--------------------------|--------------------------|--------------------------|--------------------------|
A|--15-----------15---------|--14-----------14---------|--------------------------|--------------------------|
D|--------------------------|--------------------------|--14-----------14---------|--15-----------15---------|

Bridge- Riff 4 (with distortion)
									 (4x)
e|---------------------------------------------------------------------------|
B|---------------------------------------------------------------------------|
G|-----------5--5------------------------------------------------------------|
D|---1--1----5--5-----4--4---0--6--0-----0--6--0-----0--6--0-----0--6--0-----|
A|---1--1----3--3-----4--4---0--6--0--5--0--6--0--5--0--6--0--5--0--6--0--5--|
D|---1--1-------------4--4---0--6--0-----0--6--0-----0--6--0-----0--6--0-----|

After the bridge, the only part left in the song is the 3rd chorus.
Use the chorus riff, but there's several pauses that they put in there.
Listen to the song to get the timing, it's pretty easy. And that's it.
Tap to rate this tab
 
# A B C D E F G H I J K L M N O P Q R S T U V W X Y Z