Song name
# A B C D E F G H I J K L M N O P Q R S T U V W X Y Z

Sinch - Plasma tab

Sinch
"Plasma"
From the album "Sinch"
Tabbed by Joe Costello (jcostello86@gmail.com)

Comments: In my opinion, this is the best song on the album. A really amazing song. However,
it's taken me quite a while to finally figure this one out. This is because the song
is played with a capo on the 3rd fret. I figured that much out when I saw Sinch play
in January. However, since I don't have a capo, it's been impossible to get the same tuning
that's used in the song. So I improvised on that, and changed the tuning, and this 
right
I think. If it's not right let me know. And rate the tab.

I may eventually tab the song with a capo as well. If I ever get one...

Tuning: Down 1/2 Step, low to high (Eb Ab Db Gb Bb eb)

Symbols used:
=============
/ = slide up
\ = slide down
p = pull off
11b(13)r11 = bend 11th fret to the pitch of the 13th, then release bend

Intro: Riff 1 (let all notes ring)
								 (4x)
eb|-----------------------------------------------------------------|
Bb|---------0--------------0----------------------------------------|
Gb|------6-----6--------6-----6------------6--------------6--------*|
Db|---8-----------8--8-----------8------4-----4--------4-----4-----*|
Ab|----------------------------------6-----------6--6-----------6---|
Eb|-----------------------------------------------------------------|

Verse 1: Play Riff 1 3x

Fill 1: (at 0:45)
eb|--------------------------------------------|
Bb|---------0--------------9--9/11---11--------|
Gb|------6-----6--------6----------------------|
Db|---8-----------8--8-------------------------|
Ab|--------------------------------------------|
Eb|--------------------------------------------|

Pre-Chorus: Riff 2 (strumming not exactly shown)
													 (2x)
eb|--7--7-7-7-7--7--7-7-7-7--7--7-7-7-7--7--7-----9---9--9--9--9---9---9--9--9--9---9---9--9--9--9---9---9--|
Bb|--7--7-7-7-7--7--7-7-7-7--7--7-7-7-7--7--7----11--11-11-11-11--11--11-11-11-11--11--11-11-11-11--11--11--|
Gb|--8--8-8-8-8--8--8-8-8-8--8--8-8-8-8--8--8----10--10-10-10-10--10--10-10-10-10--10--10-10-10-10--10--10-*|
Db|--9--9-9-9-9--9--9-9-9-9--9--9-9-9-9--9--9-----8---8--8--8--8---8---8--8--8--8---8---8--8--8--8---8---8-*|
Ab|--9--9-9-9-9--9--9-9-9-9--9--9-9-9-9--9--9---------------------------------------------------------------|
Eb|--7--7-7-7-7--7--7-7-7-7--7--7-7-7-7--7--7---------------------------------------------------------------|

Chorus: Riff 3 (higher notes are the melody, may be played by second guitar)
					      (3x)
eb|----------------------------------------------|
Bb|----------------------------------------------|
Gb|---------------------------------------------*|
Db|--11-11-11-11--9--9---8-9---8--8--8--6--6--6-*|
Ab|---9--9--9--9--9--9---9-9---6--6--6--4--4--4--|
Eb|---7--7--7--7--7--7---7-7---------------------|

End of Chorus:
eb|------------------------|
Bb|------------------------|
Gb|------------------------|
Db|--11--------------------|
Ab|---9-(hold this chord)--|
Eb|---7--------------------|

Play Riff 1 once

Fill 2: (at 1:37)
eb|------------------------------------------------------------|
Bb|---------0--------------9--9/11---11-11-11-11b(13)r11-------|
Gb|------6-----6--------6--------------------------------------|
Db|---8-----------8--8-----------------------------------------|
Ab|------------------------------------------------------------|
Eb|------------------------------------------------------------|

Verse 2: Play Riff 1 3x, end with Fill 1
Then repeat Pre-Chorus and Chorus.
At the end of the chorus, strum the last chord.

Bridge: Riff 4
							    (2x)
eb|------------------------------------------------------------|
Bb|--------11------------11------------12------------12--------|
Gb|-----10----10------10----10------11----11------11----11-----|
Db|---8----------8--8----------8--9----------9--9----------9---|
Ab|------------------------------------------------------------|
Eb|------------------------------------------------------------|

eb|--------------------------------------------------------------|
Bb|--------11------------11------------12-------------14---------|
Gb|-----10----10------10----10------11----11-------13----13-----*|
Db|---8----------8--8----------8--9----------9--11----------11--*|
Ab|--------------------------------------------------------------|
Eb|--------------------------------------------------------------|
							-end of Riff 4

Verse 3: Play Riff 1 once, then play Fill 2
Chorus 3: Play Riff 3 8x
*A second guitar solos over the final part of the chorus. I haven't figured the notes 
yet.
 When I do, I'll update the tab. Until then, improvise.

Outro: Riff 5
											    (4x)
eb|--------------------------------------------------------------------------------------------|
Bb|---/9--9--9--9p7--7--7--6--6--6--7--7--7--7/9--9--9--9/11--11--11/14-14-14-14-14-14-14-14---|
Gb|-------------------------------------------------------------------------------------------*|
Db|-------------------------------------------------------------------------------------------*|
Ab|--------------------------------------------------------------------------------------------|
Eb|--------------------------------------------------------------------------------------------|

Guitar 2 during the outro:
eb|---7---|
Bb|---7---|
Gb|---8---|
Db|---9---|
Ab|---9---|
Eb|---7---|
     *Just keep strumming this chord till it fades out.

And that's about it. If there's any comments, corrections or questions, e-mail me.
-Joe
Tap to rate this tab
 
# A B C D E F G H I J K L M N O P Q R S T U V W X Y Z