Guitaretab - guitar tabs
Song name
# A B C D E F G H I J K L M N O P Q R S T U V W X Y Z

Sinead Oconnor - Sacrifice tab

Highlighted       Show chord diagrams
Credit to dannyz805 for the solo in the song

All the chords are  played with barre chords


Gm                                            D#  Cm
Where I would have been with a different plan
Gm                          D#
Like the tide upon the sand
    Cm
It washed away from me
Gm
Opportunities to where I stand
D#               Cm
Sometimes I feel so empty handed
Gm                     D#
Were not the only ones
    Cm
Who will understand me

A#      Dm
Ooooooo Ooooooooo
Gm
Itís such a sacrifice inside
A#      Dm
Ooooooo Ooooooooo
Gm
Somebody clear these stormy skies
A#      Dm
Ooooooo Ooooooooo
Gm
Itís such a sacrifice inside
A#      Dm
Ooooooo Ooooooooo
Gm
Somebody clear these stormy skies

Gm                                      D#
Weíll never ever loose sight of our goals
    Cm
Wonít let go
Gm                                    D#
And even tough were a little bit older
Cm
The truth is colder
Gm                                D#
Got to workÖgot to make that money
Cm
I hope its something
Gm                          D#
Cause were not the only ones
Cm
Who can make this happen

A#      Dm
Ooooooo Ooooooooo
Gm
Itís such a sacrifice inside
A#      Dm
Ooooooo Ooooooooo
Gm
Somebody clear these stormy skies
A#      Dm
Ooooooo Ooooooooo
Gm
Itís such a sacrifice inside
A#      Dm
Ooooooo Ooooooooo
Gm
Somebody clear these stormy skies

SOLO

--17-13-------------------------------------------------|
--------15----13-15-15brp13-15-13-15--------------------|
-----------14-------------------------14(slow bend)-----|
--------------------------------------------------------|
--------------------------------------------------------|
--------------------------------------------------------|

-----15~----15---------17-----------------15-12---------------|
---------17----18brp15---17-15--------15b-------15p13h15~-----|
--12---------------------------17-17b-------------------------|
--------------------------------------------------------------|
--------------------------------------------------------------|
--------------------------------------------------------------|
[ Tab from: http://www.guitaretab.com/s/sinead-oconnor/127603.html ]
-----15------------------------------------------|
-----------18b----15-------17-13-----------------|
--17----17-----17----14~--------14----12-14------|
------------------------------------14-----------|
-------------------------------------------------|
-------------------------------------------------|

--------------------------------------------------|
--------------------------------------------------|
--------------------------------------------------|
--10--7----7---------7----------------------------|
--------10---10-7-10---10-7-----------------------|
-----------------------------10-8-7-8-7-5---------|

--------------------|
--------------------|
--------------------|
--7--7-7-7-7-7------|
--7--7-7-7-7-7------|
--5--5-5-5-5-5--x4--|

--15p12----15p12---15p12----15p12----13b~~------|
--------13-------13-------13-------13-----------|
------------------------------------------------|
------------------------------------------------|
------------------------------------------------|
------------------------------------------------|

(OVERDRIVEN)
--------------------------------------------------------------------------|
-----11-11-10-11~-----11-11-10-11~-----11-11-10-11~----11-11-13-10~-------|
--------------------------------------------------------------------------|
--12---------------12----------------12---------------12------------------|
--------------------------------------------------------------------------|
--------------------------------------------------------------------------|

----10-10-8-10---10-10-8-10---10-10-8-10---13-12-10----------------|
--8-------------8-------------8-----------------------13-11~~~~----|
-------------------------------------------------------------------|
-------------------------------------------------------------------|
-------------------------------------------------------------------|
-------------------------------------------------------------------|

Gm                      D#
The current is so strong
            Cm
And I canít fight no more
Gm                D#
And how I long to be on
    Cm
that stable shore
Gm                                D#
If we could only step outside the shade
       Cm
And in the games we play
Gm                       D#
The threat of uncertainty
Cm
Has carried me out to sea

A#      Dm
Ooooooo Ooooooooo
Gm
Itís such a sacrifice inside
A#      Dm
Ooooooo Ooooooooo
Gm
Somebody clear these stormy skies
A#      Dm
Ooooooo Ooooooooo
Gm
Itís such a sacrifice inside
A#      Dm
Ooooooo Ooooooooo
Gm
Somebody clear these stormy skies
Related for Sacrifice tab