Song name
# A B C D E F G H I J K L M N O P Q R S T U V W X Y Z

Sinead Oconnor - Jealous tab

-------------------------------------------------------------------------------
			     Jealousy - The Confession
-------------------------------------------------------------------------------
Tabbed by:Darren Ong
Email:darryberry92@yahoo.com

Tuning: C 

    Intro
|---------------------------------------------------------------------------|
|--15b--17b---21b-----------------------------------------------------------|
|--17b--19b---23b-----------------------------------------------------------|
|---------------------------------------------------------------------------|
|---------------------------------------------------------------------------|
|---------------------------------------------------------------------------|


|---------------------------------------------------------------------------|
|---------------------------------------------------------------------------|
|-------------------------------------10---9--9---7-------------------------|
|-------------------------------------x----x--x---x-------------------------|
|-------------------------------------8-\--7--7-\-5-------------------------|
|-0---00---0---00--0--0---00-0-0-0------------------------------------------|
       xx       xx     x   xx x x x
|---------------------------------------------------------------------------|
|---------------------------------------------------------------------------|
|-------------------------------------10----9--9--9--13--13-13--------------|
|-------------------------------------x-----x--x--x--x---x--x---------------|
|-------------------------------------8-----7--7--7--11--11-11--------------|
|--0---00---0---00--0--0---00-0---------------------------------------------|
        xx       xx     x   xx x  
|---------------------------------------------------------------------------|
|---------------------------------------------------------------------------|
|---------------------------------------------------------------------------|
|---------------------------------------------------------------------------|
|---------------------------------------------------------------------------|
|---------------------------------------------------------------------------|
     Chorus
|---------------------------------------------------------------------------|
|---------------------------------------------------------------------------|
|---------------------------------------------------------------------------|
|--7---77----7--77--7--7---77-7-7-7-----5--5-----3--3--33---3--33--3---3----|
|--5---55----5--55--5--5---55-5-5-5--\--3--3--\--1--1--11---1--11--1---1----|
|---------------------------------------------------------------------------|
        xx       xx     x   xx x x                      xx      xx      x
|---------------------------------------------------------------------------|
|---------------------------------------------------------------------------|
|---------------------------------------------------------------------------|
|-3--5--7-------------------------------------------------------------------|
|-1/-3/-5-------------------------------------------------------------------|
|---------------------------------------------------------------------------|
      pre-solo
|------------------------------------------------/17--15----12--13-13-------|
|--------------------------------------17-----------------------------------|
|-/14------14---------14--15-14-----------17-14---------- ------------------|
|------17-----15---17-----------17------------------------------------------|
|---------------------------------------------------------------------------|
|---------------------------------------------------------------------------|

|-15-15-13-13--17-17-15-15\13-13/15----17-15-13---10---10-12-8-12-13--------|
|-------------------------------------------------- 11----------------------|
|---------------------------------------------------------------------------|
|---------------------------------------------------------------------------|
|---------------------------------------------------------------------------|
|---------------------------------------------------------------------------|



| /  slide up
| \  slide down
| h  hammer-on
| p  pull-off
| ~  vibrato
| +  harmonic
| x  Mute note
===============================================================================
Tap to rate this tab
# A B C D E F G H I J K L M N O P Q R S T U V W X Y Z