Song name
# A B C D E F G H I J K L M N O P Q R S T U V W X Y Z

Sinergia - Rock Kaved tab

there is not song named that way but that is a nice solo
and easy one:

|----------------9-10-|-9--------------|-----------|---------9-10-|
|-10--10-12brbrb------|----10-7--------|-----------|--------------|
|---11----------------|---------9-7/6~~|~~~~7--6---|--------------|
|---------------------|----------------|-----------|-9------------|
|---------------------|----------------|-----------|--------------|
|---------------------|----------------|-----------|--------------|

|-9--------------|-----------|---------9-10-|-9--------------|---------|
|---10-7-10br-10-|-----------|--------------|---10-7-10br-10-|---------|
|----------------|-----7--6--|--------------|----------------|---------|
|----------------|-----------|-9------------|----------------|9~~~~~~~~|
|----------------|-----------|--------------|----------------|---------|
|----------------|-----------|--------------|----------------|---------|

its all about solos and if you want to get more here is my email:
Mashiah.amir@gmail.com
that the solo nice and easy as i said before.
use it if you are the rythem guitar. or if its your first song and you are just started 
play and u are the lead guitar...LOL...
i can give you more solos even better ones...

for example:
very fast! very, very fast!!

|------------------------|------------------9-10-9-|
|------------------------|-------------------------|
|---------------7-9-7-9b-|-------------------------|
|-9-779-779-779----------|-------------------------|
|------------------------|-------------------------|
|------------------------|-------------------------|

|--7---------------------------|-------------------7h10-|
|----10-8-7--------------------|---------------10b------|
|-----------9b-9p7-------------|------------------------|
|------------------9-----------|-9--9-7-9--9-7----------|
|--------------------7-----7h9-|-9----------------------|
|----------------------10------|------------------------|
   T                  T                 T
|-17--7-10/12-10/12--17--7-10/12\10/12-17-|--------17b---17-15-|
|-----------------------------------------|--------------------|
|-----------------------------------------|--------------------|
|-----------------------------------------|--------------------|
|-----------------------------------------|--------------------|
|-----------------------------------------|--------------------|

|14----------------------------------|------------------------------------------|
|---17-15-14---------------------15b-|-15h17p15---------------------------------|
|------------14----14--14----14--14--|----------16--14h16--16b-16b-16b-16--16br-|
|---------------17--------17---------|------------------------------------------|
|------------------------------------|------------------------------------------|
|------------------------------------|------------------------------------------|

you see i can get you even better solos that one is a very fast one
Tap to rate this tab
# A B C D E F G H I J K L M N O P Q R S T U V W X Y Z