Song name
# A B C D E F G H I J K L M N O P Q R S T U V W X Y Z

Sing It Loud - No One Can Touch Us Acoustic tab

Help us improve GuitareTab! Take a short survey!
Submitted By: HaZEN
Email: oHazen@Hotmail.com 
how i play it..I'm just going to give you the basic chords..you should be able to 
take it from there.
acoustic ..... Drop the E string to a D 



      We're getting higher...  
e|-----------------|
B|-----------------|
G|--3-3-3----5-3---|
D|--3-3-3----5-3---|
A|--1-1-x----x-x---|
D|--x-1-3----5-3---|
    If you come over then together willing ....
e|------------------------------------------------------------------|
B|------------------------------------------------------------------|
G|--3-3-3----5-3--3-------------------------------------------------|
D|--3-3-3----5-3--3-------------------------------------------------|
A|--1-1-x----x-x--1-------------------------------------------------|
D|--x-1-3----5-3--1-------------------------------------------------|

 Come on Come on Come on you know you gotta
e|-------------------------------------------------------------------|
B|-------------------------------------------------------------------|
G|--3-3-5-3-3-3-3----------------------------------------------------|
D|--3-3-5-3-3-3-3----------------------------------------------------|
A|--1-1-x-x-1-x-1----------------------------------------------------|
D|--x-1-5-3-x-3-1----------------------------------------------------|

And ill be singing Cuz You're..
e|-------------------------------------------------------------------|
B|-------------------------------------------------------------------|
G|-5-3-3-------------------------------------------------------------|
D|-5-3-3-------------------------------------------------------------|
A|-x-x-1-------------------------------------------------------------|
D|-5-3-1-------------------------------------------------------------|
Related for No One Can Touch Us Acoustic tab