Song name
# A B C D E F G H I J K L M N O P Q R S T U V W X Y Z

Sing It Loud - No One Can Touch Us tab

Bueno hola a todos. Esta esmi primera tabs que subo.
Para tocar esta cancion debemos afinar la 6ta cuerda MI(E) en un LA(A)
Es decir:
e|----------|
B|----------|
G|----------|
D|----------|
A|-----0~---|  <-- LA (A)    Ok? ok!
E|--7~------|  <-- LA (A)



  We're getting higher...
e|--------------------------|
B|--------------------------|
G|--3--3--3--3--3--3-3-3--3-|
D|--3--3--3--3--3--3-3-3--3-|
A|--1--1--1--1--x--x-x-x--x-|
E|--------1--1--3--3-3-3--3-|

  A little closer...
e|------------------------------|
B|------------------------------|
G|--3--3--3--3--3--3--3--3-3-3--|
D|--3--3--3--3--3--3--3--3-3-3--|
A|--1--1--1--1--1--1--x--x-x-x--|
E|--------1--1--------3--3-3-3--|

  If you come...
e|--------------------------|
B|--------------------------|
G|--3--3--3--3--3--3-3-3--3-|
D|--3--3--3--3--3--3-3-3--3-|
A|--1--1--1--1--x--x-x-x--x-|
E|--------1--1--3--3-3-3--3-|

  We'll take over the world...
e|----------------------------|
B|----------------------------|
G|--3--3--3--3-3-1--1--1--1---|
D|--5--5--5--5-5-3--3--3--3---|
A|--5--5--5--5-5-3--3--3--3---|
E|----------------------------|


  You call me closer...
e|--------------------------|
B|--------------------------|
G|--3--3--3--3--3--3-3-3--3-|
D|--3--3--3--3--3--3-3-3--3-|
A|--1--1--1--1--x--x-x-x--x-|
E|--------1--1--3--3-3-3--3-|

e|------------------------------|
B|------------------------------|
G|--3--3--3--3--3--3--3--3-3-3--|
D|--3--3--3--3--3--3--3--3-3-3--|
A|--1--1--1--1--1--1--x--x-x-x--|
E|--------1--1--------3--3-3-3--|

e|--------------------------|
B|--------------------------|
G|--3--3--3--3--3--3-3-3--3-|
D|--3--3--3--3--3--3-3-3--3-|
A|--1--1--1--1--x--x-x-x--x-|
E|--------1--1--3--3-3-3--3-|

  And dance around...
e|--------------------------------------------------|
B|--------------------------------------------------|
G|--3--3-3-3-3-1--1-1-1-1-3~------------33333333333-|
D|--5--5-5-5-5-3--3-3-3-3-1~------------11111111111-|
A|--5--5-5-5-5-3--3-3-3-3-1~------------11111111111-|
E|--------------------------------------------------|

  Come on, come on,
e|----------------------------------------------|
B|----------------------------------------------|
G|--3-3-3-3-3-3-3-3-3-3-3-3-3-3-3-3-3-3-3-3-3-3-|
D|--3-3-3-3-3-3-3-3-3-3-3-3-3-3-3-3-3-3-3-3-3-3-|
A|--1-1-1-1-1-1-1-1-0-0-0-1-1-1-1-1-1-1-1-0-0-0-|
E|------------------------1-1-1-1-1-1-1-1-------|

  Cause we are...
e|--------------------------------------------|
B|--------------------------------------------|
G|--3--3--3--3-3-1--1--1--1--1-1-3-3-3-3-3-3--|
D|--5--5--5--5-5-3--3--3--3--3-3-1-1-1-1-1-1--|
A|--5--5--5--5-5-3--3--3--3--3-3-1-1-1-1-1-1--|
E|--------------------------------------------|


 ..and now no one can touch us.
e|-----------------|
B|-----------------|
G|--3~----------3~-|
D|--3~----------3~-|
A|--1~----------1~-|
E|--------------1~-|

e|-----------------------------------------------------------|
B|--3-3-3-3-1-1-1-1--3-3-3-3-3-3-1-1-------------------------|
G|--3-3-3-3-x-x-x-x--3-3-3-3-x-x-x-x---| --------------------|
D|--1-1-1-1-3-3-3-3--1-1-1-1-5-5-3-3---|                  ---|
A|------1-1-3-3-3-3------1-1-5-5-3-3---|                  ---|
E|-------------------------------------|                  ---|
                                                           |
e|-1-1-------------------1-1---------------------|        ---|
B|-----3-3-1-1---1-3-1-------3-3-1-1--1/8-6------|        ---|
G|-------------3------3~-------------3-----7-5---|-----------|
D|--------------------------------------------8~-------------|
A|-----------------------------------------------------------|
E|-----------------------------------------------------------|

  We're falling faster....

  (SOLO BASS, KEYBOARD AND DRUM)


..everything we've got.
           e|-----------|
           B|-----------|
           G|--33333333-|
           D|--33333333-|
           A|--11111111-|
           E|--11111111-|

Come on, come on,
e|----------------------------------------------|
B|----------------------------------------------|
G|--3-3-3-3-3-3-3-3-3-3-3-3-3-3-3-3-3-3-3-3-3-3-|
D|--3-3-3-3-3-3-3-3-3-3-3-3-3-3-3-3-3-3-3-3-3-3-|
A|--1-1-1-1-1-1-1-1-0-0-0-1-1-1-1-1-1-1-1-0-0-0-|
E|------------------------1-1-1-1-1-1-1-1-------|

  Cause we are...
e|---------------------------------------------------|
B|---------------------------------------------------|
G|--3--3--3--3-3-1--1--1--1--1-1-3-3-3-3-3-3---33333-|
D|--5--5--5--5-5-3--3--3--3--3-3-1-1-1-1-1-1---11111-|
A|--5--5--5--5-5-3--3--3--3--3-3-1-1-1-1-1-1---11111-|
E|---------------------------------------------------|

Come on, come on,
e|----------------------------------------------|
B|----------------------------------------------|
G|--3-3-3-3-3-3-3-3-3-3-3-3-3-3-3-3-3-3-3-3-3-3-|
D|--3-3-3-3-3-3-3-3-3-3-3-3-3-3-3-3-3-3-3-3-3-3-|
A|--1-1-1-1-1-1-1-1-0-0-0-1-1-1-1-1-1-1-1-0-0-0-|
E|------------------------1-1-1-1-1-1-1-1-------|

  Cause we are...
e|--------------------------------------------|
B|--------------------------------------------|
G|--3--3--3--3-3-1--1--1--1--1-1-3-3-3-3-3-3--|
D|--5--5--5--5-5-3--3--3--3--3-3-1-1-1-1-1-1--|
A|--5--5--5--5-5-3--3--3--3--3-3-1-1-1-1-1-1--|
E|--------------------------------------------|

 ..and now no one can touch us.
e|-----------------|
B|-----------------|
G|--3~----------3~-|
D|--3~----------3~-|
A|--1~----------1~-|
E|--------------1~-|


                     ..your all need.
e|--------------------------------------|
B|--------------------------------------|
G|--3--3--3--3--3~------3--3--3--3--3~--|    X2
D|--x--x--3--3--3~------x--x--3--3--3~--|
A|--5--5--1--1--1~------5--5--1--1--1~--|
E|--5--5--1--1----------5--5--1--1------|

[Alex Gaskarth]
We're getting higher... (SOLO KEYBOARD)

...We'll take over the world.

                     e|-------------|
                     B|-------------|
                     G|-------3~----|
                     D|-------3~----|
                     A|-------1~----|
                     E|-------1~----|

Come on, come on,... (SOLO KEYBOARD)

Cause we are together...
e|---------------------------------------------------|
B|---------------------------------------------------|
G|--3--3--3--3-3-1--1--1--1--1-1-3-3-3-3-3-3---33333-|
D|--5--5--5--5-5-3--3--3--3--3-3-1-1-1-1-1-1---11111-|
A|--5--5--5--5-5-3--3--3--3--3-3-1-1-1-1-1-1---11111-|
E|---------------------------------------------------|


 Come on, come on,
e|----------------------------------------------|
B|----------------------------------------------|
G|--3-3-3-3-3-3-3-3-3-3-3-3-3-3-3-3-3-3-3-3-3-3-|
D|--3-3-3-3-3-3-3-3-3-3-3-3-3-3-3-3-3-3-3-3-3-3-|
A|--1-1-1-1-1-1-1-1-0-0-0-1-1-1-1-1-1-1-1-0-0-0-|
E|------------------------1-1-1-1-1-1-1-1-------|

  Cause we are...
e|-------------------------------------------------|
B|-------------------------------------------------|
G|--3--3--3--3-3-1--1--1--1--1-1-3-3-3-3-3-3-3-3-3-|  X2
D|--5--5--5--5-5-3--3--3--3--3-3-1-1-1-1-1-1-1-1-1-|
A|--5--5--5--5-5-3--3--3--3--3-3-1-1-1-1-1-1-1-1-1-|
E|-------------------------------------------------|


 ..and now no one can touch us.
e|-----------------|
B|-----------------|
G|--3~----------3~-|
D|--3~----------3~-|
A|--1~----------1~-|
E|--------------1~-|
Tap to rate this tab
# A B C D E F G H I J K L M N O P Q R S T U V W X Y Z