Song name
# A B C D E F G H I J K L M N O P Q R S T U V W X Y Z

Sing It Loud - Come Around tab

-----------------------------------------------------------------------------
			     Come Around - Sing It Loud
-----------------------------------------------------------------------------
Tabbed by: JovinF
Email: jvn_famor_shino@yahoo.com

Tuning: Drop D

Intro:

e|---------------------------|\
B|---------------------------| \
G|---7~----------------------|  \  
D|---7~--5~---9~-7~-5~-------|  /  2x
A|---5~--5~---9~-7~-5~-------| /
E|-------5~---9~-7~-5~-------|/

Guitar I
e|--------------------------------------------------------------------------|
B|-------55--77-----55--777-5--------55--77-----55--777-5-------------------|
G|---7-7---------77--------------7-7---------77-----------------------------|
D|--------------------------------------------------------------------------|
A|--------------------------------------------------------------------------|
E|--------------------------------------------------------------------------|

e|--------------------------------------------------------------------------|
B|-------55--77-----55--777-5---666-555-------------------------------------|
G|---7-7---------77---------------------5~----------------------------------|
D|--------------------------------------------------------------------------|
A|--------------------------------------------------------------------------|
E|--------------------------------------------------------------------------|

Guitar II (figure out the strumming)
e|--------------------------------------------------------------------------|
B|--------------------------------------------------------------------------|
G|----7---------------------------------------------------------------------|
D|----7---5---7---9--7--5---------------------------------------------------|
A|----5---5---7---9--7--5---------------------------------------------------|
E|--------5---7---9--7--5---------------------------------------------------|

Verse 
e|-----------------------------|
B|-----------------------------|
G|---7-------------------------|
D|---7---5---7--5--7-----------|
A|---5~--5---7--5--7-----------|
E|-------5~--7~-5~-7~----------|

e|--------------------------------------------------------------------------|
B|--------------------------------------------------------------------------|
G|---7--7-------------------------------------------------------------------|
D|---7--7-x14--5--5------7--7-----5--5-----7--7------7-9--------------------|
A|---5--5------5--5-x14--7--7-x6--5--5-x6--7--7-x11--7-9--------------------|
E|-------------5--5------7--7-----5--5-----7--7------7-9--------------------|
        .         .         .        .        .

I would give all i have...  (figure out the strumming lol)
e|--------------------------------------------------------------------------|
B|--------------------------------------------------------------------------|
G|---7----------------------------------------------------------------------|
D|---7--5--7--5--7--------7-------------------------------------------------|
A|---5--5--7--5--7-(hold)-7-(hold)------------------------------------------|
E|------5--7--5--7--------7-------------------------------------------------|


Chorus
im all tied up..                 and for the past few days..
e|--------------------------------------------------------------------------|
B|--------------------------------------------------------------------------|
G|---7----------------------------7-----------------------------------------|
D|---7--5--9--5-------------------7--5--7---9~-7~-5~------------------------|
A|---5--5--9--5-------------------5--5--7---9~-7~-5~------------------------|
E|------5--9--5----------------------5--7---9~-7~-5~------------------------|

Bridge:
exposed and you're my weakness..
e|--------------------------------------------|\
B|--------------------------------------------| \
G|--------------------------------------------|  \
D|---9-7-9---------9-7-9--7/9--5--------------|  / 2x
A|---7-5-7-(hold)--7-5-7--5/7--5--------------| /
E|---7-5-7---------7-5-7--5/7--5--------------|/

e|---------------x-x-x-----------------------------|\
B|---------------x-x-x-----------------------------| \
G|---------------x-x-x-----------------------------|  \
D|---9-7-9-------x-x-x-9-7-9---7/9--5--7-----------|  / 2x
A|---7-5-7-(hold)x-x-x-7-5-7---5/7--5--7-----------| /
E|---7-5-7-------x-x-x-7-5-7---5/7--5--7-----------|/

Chorus:
(single strum)
e|------------------------------------------|
B|------------------------------------------|
G|---7~-------------------------------------|
D|---7~--5~--7~--9~-7~-5~-------------------|
A|---5~--5~--7~--9~-7~-5~-------------------|
E|-------5~--7~--9~-7~-5~-------------------|

Then whole Strum..
e|------------------------------------------|
B|------------------------------------------|
G|---7--------------------------------------|
D|---7---5--7--5-7--------------------------|
A|---5---5--7--5-7--------------------------|
E|-------5--7--5-7--------------------------|

Outro:
what goes around comes around in the end...
e|------------------------------------------------|\
B|------------------------------------------------| \
G|-----------------7------------------------------|  \
D|---9------5------7-x16--7-----------------------|  / 4x
A|---9-x16--5-x16--5------7-x16-------------------| /
E|---9------5-------------7-----------------------|/

then..
e|-----------------|
B|-----------------|
G|-----------------|
D|-----9~-7~-5~----|
A|-----9~-7~-5~----|
E|-----9~-7~-5~----|
Tap to rate this tab
# A B C D E F G H I J K L M N O P Q R S T U V W X Y Z