Song name
# A B C D E F G H I J K L M N O P Q R S T U V W X Y Z

Sing It Loud - Dont Save Me tab

By: leonel lopez
My mail any question: cone.k8@hotmail.com

hola denuevo! ^^'
bueno vamos a dejar en claro la afinacion para esta cancion seria igual que "no 
one can touch us" aqui esta el ejemplo!

hello again! ^^ '
good let's leave in skylight the refining for this serious song just as " not one 
can touch us " here is the example!



e|----------|
B|----------|
G|----------|                           <---- EYE WITH THIS!!!!
D|----------|
A|-----0~---|  <-- LA (A)    Ok? ok!
E|--7~------|  <-- LA (A)
     


 Don't save me...
e|------------------------|
B|------------------------|
G|-3-3-33-33-3-3-33-3-33-3|
D|-3-3-33-33-3-3-33-3-33-3| X3
A|-1-1-11-11-1-1-xx-x-xx-x|  
E|--------11-1-1-33-3-33-3| 

            ...I know I can make it on my..
e|--------------------|
B|--------------------|
G|-3-3-33-33-3-3-3~---|
D|-3-3-33-33-3-3-3~---| 
A|-1-1-11-11-1-1-x~---|  
E|--------13-3-3-3~---|

..oooownn.
e|------------------------------|     |-----|
B|------------------------------|     |-----|
G|-33-3-3-33-3-3-33-3-3-33-3-3--|     |-3~--|
D|-xx-x-x-33-3-3-33-3-3-33-3-3--| X2  |-x---|
A|-55-5-5-11-1-1-11-1-1-xx-x-x--|     |-5~--|
E|-55-5-5-11-1-1--------33-3-3--|     |-5~--|

Sometimes I like..
(SOLO BASS AND DRUM)


    ...loook,Can you tell me?...
e|---------------|
B|---------------|
G|-----------3~--|
D|--33--33---x---| 
A|--11--11---5~--|  
E|-----------5~--|
P.M ..  ..
Can we burn this down?.
e|------------------------|
B|------------------------|
G|-3-3-33-33-3-3-33-3-33-3|
D|-3-3-33-33-3-3-33-3-33-3| X2
A|-1-1-11-11-1-1-xx-x-xx-x|  
E|--------11-1-1-33-3-33-3| 

If I can ask a...
e|----------------------|
B|----------------------|
G|---3~---3~---3~---3~--|
D|---x----3~---3~---3~--| X3
A|---5~---1~---1~---x---|  
E|---5~---1~--------3~--|

e|----------------------|
B|----------------------|
G|---3~---3~---3~----33-|
D|---x----3~---3~----33-| 
A|---5~---1~---1~----11-|  
E|---5~---1~------------|


Don't save me...
e|---------------------------------|
B|---------------------------------|
G|-3-3-3-3-3-3-3-3-3-3-3-3-3-3-3-3-|
D|-3-3-3-3-3-3-3-3-3-3-3-3-3-3-3-3-| X3
A|-1-1-1-1-1-1-1-1-x-x-x-x-x-x-x-x-|  
E|---------1-1-1-1-3-3-3-3-3-3-3-3-|

e|---------------------|
B|---------------------|
G|-3-3-3-3-3-3-3-3-3~--|
D|-3-3-3-3-3-3-3-3-3~--| 
A|-1-1-1-1-1-1-1-1-x~--|  
E|---------1-1-1-1-3~--|


(Ohh, ohh) Make it on my own
e|----------------------------------|     
B|----------------------------------|     
G|-3-3-3-3-3-3-3-3-3-3-3-3-3-3-3-3--|     
D|-x-x-x-x-3-3-3-3-3-3-3-3-3-3-3-3--| X2  
A|-5-5-5-5-1-1-1-1-1-1-1-1-x-x-x-x--|     
E|-5-5-5-5-1-1-1-1---------3-3-3-3--|   

e|----------------------|
B|----------------------|
G|---3~---3~---3~---3~--|
D|---x----3~---3~---3~--| X3
A|---5~---1~---1~---x---|  
E|---5~---1~--------3~--|  

e|----------------------------|
B|----------------------------|
G|---3~---3~---3~--33-333-33--|
D|---x----3~---3~--33-333-33--| 
A|---5~---1~---x---11-111-11--|  
E|---5~---1~---3~-------------|
PM                    ...


Don't save me...
e|---------------------------------|
B|---------------------------------|
G|-3-3-3-3-3-3-3-3-3-3-3-3-3-3-3-3-|
D|-3-3-3-3-3-3-3-3-3-3-3-3-3-3-3-3-| X4
A|-1-1-1-1-1-1-1-1-x-x-x-x-x-x-x-x-|  
E|---------1-1-1-1-3-3-3-3-3-3-3-3-|

       (INTERMEDIO)
e|--------------------------|
B|--------------------------|
G|-33-3-333-3-333-3-333-33--|
D|-33-3-333-3-333-3-333-33--| 
A|-11-1-111-1-111-1-111-11--|  
E|-------------11-1-111-11--|

              ..Baby, I got to make it on my own..
e|--------------------------|
B|--------------------------|
G|-33-3-333-3-333-3-333-33--|
D|-33-3-333-3-333-3-333-33--| 
A|-11-1-111-1-111-1-111-11--|  
E|-------------11-1-111-11--|
 
  ooooooownnn...
e|--------------------------|
B|--------------------------|
G|-33-3-333-3-333-3-33-3-3--|
D|-33-3-333-3-333-3-xx-x-x--| 
A|-11-1-111-1-111-1-55-5-5--|  
E|-------------11-1-55-5-5--|

            ...Baby, I got to make it on my own..
e|-------------------------|
B|-------------------------|
G|-33-3-333-3-333-3-333-3--|
D|-33-3-333-3-3xx-x-x33-3--| 
A|-11-1-111-1-155-5-5xx-x--|  
E|-------11-1-155-5-533-3--|

   Ooooownn..
e|------------------------------------------|
B|------------------------------------------|
G|-3-3-3-3-3-3-3-3-3-3-3-3-3-3-3-3-3-3-3-3--|
D|-3-3-3-3-3-3-3-3-3-3-x-x-x-x-x-3-3-3-3-3--|  X2
A|-1-1-1-1-1-1-1-1-1-1-5-5-5-5-5-x-x-x-x-x--|  
E|-----------1-1-1-1-1-5-5-5-5-5-3-3-3-3-3--|


Don't save me...
e|------|
B|------|
G|-3~---|
D|-3~---| 
A|-1~---|  
E|------| 

..lot to ask but don't save me...
e|-------------|-----------------------------------|
B|-------------|-----------------------------------|
G|-------------|--3-3-3-3-3-3-3-3-3-3-3-3-3-3-3-3--| X2
D|---------33--|--3-3-3-3-3-3-3-3-3-3-3-3-3-3-3-3--| 
A|---------11--|--1-1-1-1-1-1-1-1-x-x-x-x-x-x-x-x--|  
E|-------------|----------1-1-1-1-3-3-3-3-3-3-3-3--|
PM         ..

 Don't save me...
e|------------------------|
B|------------------------|
G|-3-3-33-33-3-3-33-3-33-3|
D|-3-3-33-33-3-3-33-3-33-3| X2
A|-1-1-11-11-1-1-xx-x-xx-x|  
E|--------11-1-1-33-3-33-3| 

   ..own.   (END)
e|-------------|
B|-------------|
G|----3--------|
D|----3--------|
A|----1--------|  
E|-------------|  
     
 = Silencio (Silence)

 
Tap to rate this tab
# A B C D E F G H I J K L M N O P Q R S T U V W X Y Z