Song name
# A B C D E F G H I J K L M N O P Q R S T U V W X Y Z

Sing It Loud - Best Beating Heart Acoustic tab

by:leonel lopez
mail:cone.sk8@hotmail.com

EYE! version ACOUSTIC! ok?


e|----------|
B|----------|                        correct refining!
G|----------|                 <----- afinacion correcta!             
D|----------|                        
A|-----0~---|  <-- LA (A)     ready? ok!
E|--7~------|  <-- LA (A)

-----------------------------------------------------------------------------

she says I've got...in the world.
e|---------------------------------|
B|---------------------------------|                       
G|----5~-----55~---------55~-------|                             
D|----5~-----55~---------55~-------|                        
A|----x------x0~---------03~-------|  
E|----5~-----5------------3~-------|

e|---------------------------------|
B|---------------------------------|                       
G|---55~-----55~---------55~-------|                             
D|---55~-----55~---------55~-------|                        
A|---3x------x0~---------03~-------|  
E|---35~-----5------------3~-------|

e|-----|---------------------------------------|
B|-----|---------------------------------------|                       
G|-555-|5-5555555-5-5555555-5-555555-5-5555555-|                             
D|-555-|5-5555555-5-5555555-5-555555-5-5555555-|  X2                      
A|-333-|x-xxxxxxx-0-0000000-3-333333-3-3333333-|  
E|-333-|5-5555555-----------3-333333-3-3333333-|

I swear to God...
e|---------------------------------|
B|---------------------------------|                       
G|----5~-----55~---------55~-------|                             
D|----5~-----55~---------55~-------|                        
A|----x------x0~---------03~-------|  
E|----5~-----5------------3~-------|

e|---------------------------------|
B|---------------------------------|                       
G|---55~-----55~---------55~-------|                             
D|---55~-----55~---------55~-------|                        
A|---3x------x0~---------03~-------|  
E|---35~-----5------------3~-------|

       Two seats inside...
e|-----|---------------------------------------|
B|-----|---------------------------------------|                       
G|-555-|5-5555555-5-5555555-5-555555-5-5555555-|                             
D|-555-|5-5555555-5-5555555-5-555555-5-5555555-|  X2                      
A|-333-|x-xxxxxxx-0-0000000-3-333333-3-3333333-|  
E|-333-|5-5555555-----------3-333333-3-3333333-|


   She says I've got...
e|----------------------------------------|
B|----------------------------------------|                       
G|5-5555555-5-555-5555-5-555555-5-5555555-|                             
D|5-5555555-5-555-5555-5-555555-5-5555555-|  X2                      
A|x-xxxxxxx-0-000-3333-3-333333-3-3333333-|  
E|5-5555555------------3-333333-3-3333333-|


  We lay with...
e|---------------------------------|
B|---------------------------------|                       
G|----5~-----55~---------55~-------|                             
D|----5~-----55~---------55~-------|                        
A|----x------x0~---------03~-------|  
E|----5~-----5------------3~-------|

e|---------------------------------|
B|---------------------------------|                       
G|---55~-----55~---------55~-------|                             
D|---55~-----55~---------55~-------|                        
A|---3x------x0~---------03~-------|  
E|---35~-----5------------3~-------|

      With faces pressed...
e|-----|---------------------------------------|
B|-----|---------------------------------------|                       
G|-555-|5-5555555-5-5555555-5-555555-5-5555555-|                             
D|-555-|5-5555555-5-5555555-5-555555-5-5555555-|  X2                      
A|-333-|x-xxxxxxx-0-0000000-3-333333-3-3333333-|  
E|-333-|5-5555555-----------3-333333-3-3333333-|

   ,withooout a faaaall.
e|--------------------------|
B|--------------------------|                       
G|---5555555-----5555555----|                             
D|---5555555-----5555555----|                        
A|---xxxxxxx-----3333333----|  
E|---5555555-----3333333----|


   She says I've got...
e|----------------------------------------|
B|----------------------------------------|                       
G|5-5555555-5-555-5555-5-555555-5-5555555-|                             
D|5-5555555-5-555-5555-5-555555-5-5555555-|  X4                      
A|x-xxxxxxx-0-000-3333-3-333333-3-3333333-|  
E|5-5555555------------3-333333-3-3333333-|


Do you believe....
e|-----------------------|
B|-----------------------|                       
G|-55555555--55555555----|                             
D|-55555555--55555555----|                      
A|-33333333--22222222----|  
E|-33333333--22222222----|


Do you believe....
e|------------------------|
B|------------------------|                       
G|-55555555--5555-5555----|                             
D|-55555555--5555-5555----|                      
A|-33333333--0000-xxxx----|  
E|-33333333--0000-5555----|


Do you believe....
e|-----------------------|
B|-----------------------|                       
G|-55555555--55555555----|                             
D|-55555555--55555555----|                      
A|-33333333--22222222----|  
E|-33333333--22222222----|


Do you believe....
e|------------------------|
B|------------------------|                       
G|-55555555--5555-5555----|                             
D|-55555555--5555-5555----|                      
A|-33333333--0000-xxxx----|     
E|-33333333--5555-5555----|


Do you believe....
e|-----------------------|
B|-----------------------|                       
G|-55555555--55555555----|                             
D|-55555555--55555555----|                      
A|-33333333--22222222----|  
E|-33333333--22222222----|


Do you believe....
e|------------------------|
B|------------------------|                       
G|-55555555--5555-5555----|                             
D|-55555555--5555-5555----|                      
A|-33333333--0000-xxxx----|     
E|-33333333--5555-5555----|


She saaaays,....
e|-----------------------|
B|-----------------------|                       
G|-55555555--55555555----|                             
D|-55555555--55555555----|                      
A|-33333333--22222222----|  
E|-33333333--22222222----|


She saaaays,....
e|-----------------------|
B|-----------------------|                       
G|-55555555--55555555----|                             
D|-55555555--55555555----|                      
A|-33333333--xxxxxxxx----|  
E|-33333333--55555555----|

She saaaays,....
e|-----------------------|
B|-----------------------|                       
G|-55555555--55555555----|                             
D|-55555555--55555555----|                      
A|-33333333--22222222----|  
E|-33333333--22222222----|


And it makes her want to twirl... ground..
                    e|-----------------------|
                    B|-----------------------|                       
                    G|-55555555--55555555----|                             
                    D|-55555555--55555555----|                      
                    A|-33333333--22222222----|  
                    E|-33333333--22222222----|

  
e|--------|
B|--------|                       
G|--5~----|                           
D|--5~----|              END (FIN)          
A|--3~----|     
E|--3~----|
Tap to rate this tab
 
# A B C D E F G H I J K L M N O P Q R S T U V W X Y Z