Song name
# A B C D E F G H I J K L M N O P Q R S T U V W X Y Z

Sing It Loud - Were Not Afraid tab

We're Not Afraid - Sing It loud

I play it in D - Standard (one step down). So yes it will be higher in E, don't
comment this saying its too high, check the tuning.

Intro: x2
D------------------------|
A------------------------|
F---11-12-11-9-7---------|
C------------------------|
G---9--10-9--7-5--77--55-|
D-----------------55--33-|

D--------------------------|
A--------------------------|
F---11-12-11-9-7-----------|
C---------------------1212-|
G---9--10-9--7-5--77--1010-|
D-----------------55-------|

Verse One:
D-----------------------|
A-----------------------|
F-----------------------|
C--7---ring-------------|
G--5---------5---ring---|
D------------3----------|

D-----------------------|
A-----------------------|
F9----------------------|
C--7---ring-------------|
G7/5---------7---ring---|
D------------5----------|

D-----------------------|
A-----------------------|
F-----------------------|
C--7--------------------|
G--5---------7----------|
D------------5----------|    x2

D-----------------------|
A-----------------------|
F--7-7-7-7-9-9-9-9------|
C-----------------------|
G--5-5-5-5-7-7-7-7------|
D-----------------------|

Chorus:
Same as intro

Verse Two:
D-----------------------|
A-----------------------|
F-----------------------|
C---7--ring--7----ring--|
G---5--------5----------|
D-----------------------|

D-----------------------|
A-----------------------|
F-----------------------|
C-----------------------|
G---5--5--5--5-5/7------|
D-----------------------|

D-----------------------|
A-----------------------|
F-----------------------|
C-----------------------|
G-----------------------|
D---3--3--3--3--2/3-----|

D-----------------------|
A-----------------------|
F-----------------------|
C-----------------------|
G---5--5--5--5-5/7------|
D-----------------------|

D-----------------------|
A-----------------------|
F-----------------------|
C-----------------------|
G-----------------------|
D---3--3--3--3--2/3-----|

D-----------------------|
A-----------------------|
F---11-9-7-6-4----------| (not one after another like that, strum a normal
C-----------------------| pattern down the neck)
G---9--7-5-4-2----------|
D-----------------------|

D------------------------|
A------------------------|
F---7-7-7-7--------------|
C------------------------|
G---5-5-5-5--------------|guitar fill (based on D, the 7th fret, idk it, wing it)
D------------------------|

Chorus:
same as before

Bridge: x2
D-----------------------|
A-----------------------|
F-----------------------|
C-----------------------|
G--2222-4-5555----------|
D--0000-2-3333----------|

D-----------------------|
A-----------------------|
F-----------------------|
C--7777-----------------|
G--5555--7777-----------|
D--------5555-----------|

Build Up:

D-----------------------|
A-----------------------|
F----7--7--7------------|
C-----------------------|
G----5--5--5------------|
D-----------------------| x4, if not more

D-----------------------|
A-----------------------|
F-----------------------|
C--7--------------------|
G--5---------5----------|
D------------3----------|

D-----------------------|
A-----------------------|
F-----------------------|
C--7--------------------|
G--5---------7----------|
D------------5----------|

D-----------------------|
A-----------------------|
F-----------------------|
C--7--------------------|
G--5---------5----------|
D------------3----------|

D-----------------------|
A-----------------------|
F-----------------------|
C--7--------------------|
G--5---------7----------|
D------------5----------|

Outro: same as intro
Tap to rate this tab
 
# A B C D E F G H I J K L M N O P Q R S T U V W X Y Z