Sing It Loud - Light It Up tab

Drop D Tuning                    (REPEAT 8 TIMES ONLY DO HALF OF THE 
                                  8TH ONE AS IT ENTERS THE CHORUS)
Sing It Loud                     
Light it Up                       *PLAY THIS PART THE SECOND TIME *
(INTRO/VERSE)                     
G|------------------------------|-----------------------------------|      
E|------------------------------|-----------------------------------|
B|------------------------------|-----------------------------------|          
G|------------------------------|-----------------------------------|          
D|-------5------5-------------5-|--9-9------5-5-------5-5-----------|
A|-3-3-----3-3----0-0-3-3-3-----|--9-9(8x)--5-5-(8x)--5-5-(12x)-----|
D|------------------------------|--9-9------5-5-------5-5-----------|

 
   (CHORUS)
E|-----------------------------|
B|-----------------------------|        (REPEAT 4X)
G|--------------7-7-7----------|         (BACK TO VERSE/INTRO)
D|--9-9-9--5-5--7-7-7--7-7-----|                                             
A|--9-9-9--5-5--5-5-5--7-7-----|
D|--9-9-9--5-5---------7-7-----|


 

A EASY AND SIMPLE SONG THE BRIDGE IS THE SAME AS THE CHORUS JUST PLAYED OVER AGAIN 
AND AGAIN A SOLO WILL BE COMING SOON THANKS!
Tap to rate this tab
 
# A B C D E F G H I J K L M N O P Q R S T U V W X Y Z