Sing It Loud - Sugar Sweet Acoustic tab

So i really like this song and this is my first tab. It's pretty easy and only like 4 
Just listen to the acoustic version on youtube and you should be able to get a feel for 
rythem.

(Intro/Verse)

e|---3-------3-------3-------3-------3------3------3------------------------|
B|---3-------3-------3-------3-------3------3------3------------------------|
G|---------------------------2---------------------2------------------------|
D|---2---------------2---------------2--------------------------------------|
A|---3-------2-------2---------------3------2-------------------------------|
E|-----------3------------------------------3-------------------------------|

(Chours) - same as verse

e|---3-------3-------3-------3-------3------3------3------------------------|
B|---3-------3-------3-------3-------3------3------3------------------------|
G|---------------------------2---------------------2------------------------|
D|---2---------------2---------------2--------------------------------------|
A|---3-------2-------2---------------3------2-------------------------------|
E|-----------3------------------------------3-------------------------------|
Tap to rate this tab
 
# A B C D E F G H I J K L M N O P Q R S T U V W X Y Z