Sing It Loud - Light It Up tab

-------------------------------------------------------------------------------
			     Light It Up - Sing It Loud
-------------------------------------------------------------------------------
Tabbed by: Eric A.

Tuning: Drop D


This song has a lot of little fills and stuff that would've been a bitch to 
tab out. I put all the main stuff up top and all the little fills (the ones 
I could pick out anyway...) at the bottom. I'm 99% sure that the main stuff 
is right. If you can help me out with the fills, leave a comment! Enjoy!

Oh, and for the most part I didn't show the timing, but it's not hard to
figure out.


Verse 1:

Intro/main riff
e|---------------------------------------------------------------------------|
B|---------------------------------------------------------------------------|
G|---------------------------------------------------------------------------|
D|-------7--------7------7------7--------------------------------------------|
A|-----5-------5-------5------5----------------------------------------------|
D|---9------5--------7------7------------------------------------------------|
This is played throughout the song. There are parts where they'll drop a 
note or two, but this is the basic riff. 





Chorus:
e|---------------------------------------------------------------------------|
B|---------------------------------------------------------------------------|
G|---------------------------------------------------------------------------|
D|---9---5---0---7-----------------------------------------------------------|
A|---9---5---0---7-----------------------------------------------------------|
D|---9---5---0---7-----------------------------------------------------------|




Verse 2:

Play the main riff.

A second guitar is palm muting these chords in the background:
e|---------------------------------------------------------------------------|
B|---------------------------------------------------------------------------|
G|---------------------------------------------------------------------------|
D|---9---5---7---------------------------------------------------------------|
A|---9---5---7---------------------------------------------------------------|
D|---9---5---7---------------------------------------------------------------|
     .   .   .


Solo:

The background guitar is the same as the chorus. Throw some vibratos on 
some of these notes:

e|---------------------------------------------------------------------------|
B|---------------------------------------------------------------------------|
G|----------14---------14------11-12-11-11-------------14-------14b16r14-----|
D|----11-12------11-12------12-------------14----11-12----11-12--------------|
A|---------------------------------------------------------------------------|
D|---------------------------------------------------------------------------|

e|---------------------------------------------------------------------------|
B|------------------------15--------15------------15-19-17-------------------|
G|-----11-12-11/14--14-16-----14-16------14-14-16----------------------------|
D|--12-----------------------------------------------------------------------|
A|---------------------------------------------------------------------------|
D|---------------------------------------------------------------------------|



e|--------------------17--1717-19-21b22r21-----------------------------------|
B|-----19b20r19-17-15--------------------------------------------------------|
G|---------------------------------------------------------------------------|
D|---------------------------------------------------------------------------|
A|---------------------------------------------------------------------------|
D|---------------------------------------------------------------------------|


The bridge uses the same chords as the second verse (9,5,7 are the roots on 
the low D string).



FILLS:
Verse 1:

Riff 1
e|---------------------------------------------------------------------------|
B|---------------------------------------------------------------------------|
G|--------14---------9------9h11p9/7-----------------------------------------|
D|-----12--------12----------------------------------------------------------|
A|---------------------------------------------------------------------------|
D|---------------------------------------------------------------------------|
This little bit is played in the background during the first verse. It 
comes in on the end of the 4th time through the main riff. 


Verse 2:



Riff 2
e|---------------------------------------------------------------------------|
B|---------------------------------------------------------------------------|
G|---------------------------------------------------------------------------|
D|---------2-----------------------------------------------------------------|
A|---2-4-5---5---------------------------------------------------------------|
D|---------------------------------------------------------------------------|
This is the little fill that you hear throughout the second chorus.

Riff 3
e|---------------------------------------------------------------------------|
B|---------------------------------------------------------------------------|
G|-------------11------------------------------------------------------------|
D|----11h12h14----14-12------------------------------------------------------|
A|---------------------------------------------------------------------------|
D|---------------------------------------------------------------------------|
This is played at the same time as riff 2.
Tap to rate this tab
 
# A B C D E F G H I J K L M N O P Q R S T U V W X Y Z