Song name
# A B C D E F G H I J K L M N O P Q R S T U V W X Y Z

Sing It Loud - Were Not Afraid tab

i figured it out in drop d tuning

intro
guitar1
------------------------------|
------------------------------|
5-5555-55-55---5-5555-55-555--|
5-5555-55-55---5-5555-55-555--|
3-3333-77-55---3-3333-77-555--|
--3333-77-55-----3333-77-555--|
                         xxx

-------------------------------|
-------------------------------|
5-5555-55-55---5-5555-55-55--5-|
5-5555-55-55---5-5555-55-55--5-| ring out
3-3333-77-55---3-3333-77-55--3-|
--3333-77-55-----3333-77-55----|

guitar2
switch most auctives kind of fast
-------------------------|
-------------------------|
9---10-9-7-5----9-9--5-5-|
-------------------------|
7---8--7-5-3----7-7--3-3-|
-------------------------|

--------------------------|
--------------------------|
9---10-9-7-5----9-9--5-12-|
--------------------------|
7---8--7-5-3----7-7--3-10-|
--------------------------|

---------------------------|
---------------------------|
9---10-9-7-5----9-9--5-7-9-|
---------------------------|
7---8--7-5-3----7-7--3-5-7-|
---------------------------|

-------------------------------|
-------------------------------|
9---10-9-7-5----9-9--5-12-10-9-|
-------------------------------| ring out
7---8--7-5-3----7-7--3-10-8--7-|
-------------------------------|
Tap to rate this tab
 
# A B C D E F G H I J K L M N O P Q R S T U V W X Y Z