Song name
# A B C D E F G H I J K L M N O P Q R S T U V W X Y Z

Single File - Zombies Ate My Neighbors tab

So i kind of figured this out by ear, but i thought it sounded pretty close and it's a 
easier to play than the other tab that's available.

Tuning: Standard EADGBE

E|-x--x--x--x--x--x--x--x--x--x--x--x--x--x--x--x-|
B|-x--x--x--x--x--x--x--x--x--x--x--x--x--x--x--x-|
G|-10-10-10-10-8--8--8--8--8--8--8--8--6--6--8--8-|
D|-11-11-11-11-8--8--8--8--9--9--9--9--6--6--8--8-|
A|-11-11-11-11-x--x--x--x--9--9--9--9--x--x--x--x-|
E|-9--9--9--9--8--8--8--8--7--7--7--7--6--6--8--8-|

E|-x--x--x--x--x--x--x--x--x-----------x---------|
B|-x--x--x--x--x--x--x--x--x-----------x---------|
G|-10-10-10-10-8--8--8--8--8~----------6~--------|
D|-11-11-11-11-8--8--8--8--9~----------6~--------|
A|-11-11-11-11-x--x--x--x--9~----------x---------|
E|-9--9--9--9--8--8--8--8--7~----------6~--------|

~ = let ring
x = muted string

Still gotta figure out the verses and other stuff but rate and leave a comment!
Tap to rate this tab
 
# A B C D E F G H I J K L M N O P Q R S T U V W X Y Z