Song name
# A B C D E F G H I J K L M N O P Q R S T U V W X Y Z

Single File - Grocery Store Song tab

Help us improve GuitareTab! Take a short survey!
----------------------------------------------------------------------------
			     The Grocery Store Song- Single File
----------------------------------------------------------------------------
Tabbed by: Me
Email:Cantstoptalking28@yahoo.com
E-mail Me if you have any corrections, This is my first tab so it may be wrong.

Tuning: Standard (EADGBE)

(Intro)

E|-------------------------------------------------------------------------|
B|-------------------------------------------------------------------------|
G|-------------------------------------------------------------------------|
D|-------------------------------------------------------------------------|
A|---6-5-6---6-5-3---6-5-6---5-6-8-----------------------------------------|
E|-8-------3-------4-------6-----------------------------------------------|

(Bridge Thing)

E|-------------------------------------------------------------------------|
B|-------------------------------------------------------------------------|
G|-12-12-12-12--8-8-8--10-10-10-10--15-------------------------------------|
D|-12-12-12-12--8-8-8--10-10-10-10--15-------------------------------------|
A|-10-10-10-10--6-6-6--8--8--8--8---13-------------------------------------|
E|-------------------------------------------------------------------------|

E|-------------------------------------------------------------------------|
B|-------------------------------------------------------------------------|
G|-12-12-12-12--8-8-8--10-10-10-10--7-7/8----------------------------------|
D|-12-12-12-12--8-8-8--10-10-10-10--7-7/8----------------------------------|
A|-10-10-10-10--6-6-6--8--8--8--8---5-5/6----------------------------------|
E|-------------------------------------------------------------------------|


 |------------------------------Palm Mute----------------------------------|
(Repeat 2x)

E|-------------------------------------------------------------------------|
B|-------------------------------------------------------------------------|
G|-9-9-9-9-9-9-9-9--3-3-3-3-3-3-3-3--5-5-5-5-5-5-5-5--7-7-7--8-8-10--------|
D|-9-9-9-9-9-9-9-9--3-3-3-3-3-3-3-3--5-5-5-5-5-5-5-5--7-7-7--8-8-10--------|
A|-7-7-7-7-7-7-7-7--1-1-1-1-1-1-1-1--3-3-3-3-3-3-3-3--5-5-5--6-6-8---------|
E|-------------------------------------------------------------------------|

(Intro)(Comes in after first one above and plays during the second one)

E|-------------------------------------------------------------------------|
B|-------------------------------------------------------------------------|
G|-------------------------------------------------------------------------|
D|-------------------------------------------------------------------------|
A|---6-5-6---6-5-3---6-5-6---5-6-8-----------------------------------------|
E|-8-------3-------4-------6-----------------------------------------------|


(Bridge Thing)(Repeat 2x)

E|-------------------------------------------------------------------------|
B|-------------------------------------------------------------------------|
G|-12-12-12-12--8-8-8--10-10-10-10--15-------------------------------------|
D|-12-12-12-12--8-8-8--10-10-10-10--15-------------------------------------|
A|-10-10-10-10--6-6-6--8--8--8--8---13-------------------------------------|
E|-------------------------------------------------------------------------|

E|-------------------------------------------------------------------------|
B|-------------------------------------------------------------------------|
G|-12-12-12-12--8-8-8--10-10-10-10--7-7/8----------------------------------|
D|-12-12-12-12--8-8-8--10-10-10-10--7-7/8----------------------------------|
A|-10-10-10-10--6-6-6--8--8--8--8---5-5/6----------------------------------|
E|-------------------------------------------------------------------------|

(Repeate 2x)

E|-------------------------------------------------------------------------|
B|-------------------------------------------------------------------------|
G|-------------------------------------------------------------------------|
D|-------------------------------------------------------------------------|
A|---6-5-6---6-5-3---6-5-6---5-6-8-----------------------------------------|
E|-8-------3-------4-------6-----------------------------------------------|
                          
    At this part, It does a fast 3 strum thing, listen to the song
(Repeate 4x)
        
E|------------------------------------------------------------------------|
B|----------(3 fast)----(3 Fast)-----------(3 Fast)-----(3Fast)-----------|
G|-8-8-8-8--10-10-10-10--7-7-7-7--8-8-8-8--12-12-12-12--10-10-10-10-------|
D|-8-8-8-8--10-10-10-10--7-7-7-7--8-8-8-8--12-12-12-12--10-10-10-10-------|
A|-6-6-6-6--8--8--8--8---5-5-5-5--6-6-6-6--10-10-10-10--8--8--8--8--------|
E|------------------------------------------------------------------------|

  |-----------------------------Palm mute---------------------------------|
(Do this 2x alone then 2x with the intro) (Total of 4 times)

E|-------------------------------------------------------------------------|
B|-------------------------------------------------------------------------|
G|-------------------------------------------------------------------------|
D|-----0---1-0---0-------0---1-0---0------1---3-1-0-1------1---3-1-0-1-----|
A|-1-1---1-----1-----1-1---1-----1----3-3---3----------3-3---3-------------|
E|-------------------------------------------------------------------------|

(Intro)(Repeate 2x)

E|-------------------------------------------------------------------------|
B|-------------------------------------------------------------------------|
G|-------------------------------------------------------------------------|
D|-------------------------------------------------------------------------|
A|---6-5-6---6-5-3---6-5-6---5-6-8-----------------------------------------|
E|-8-------3-------4-------6-----------------------------------------------|

(Bridge Thing)(Repeat 2x)

E|-------------------------------------------------------------------------|
B|-------------------------------------------------------------------------|
G|-12-12-12-12--8-8-8--10-10-10-10--15-------------------------------------|
D|-12-12-12-12--8-8-8--10-10-10-10--15-------------------------------------|
A|-10-10-10-10--6-6-6--8--8--8--8---13-------------------------------------|
E|-------------------------------------------------------------------------|

E|-------------------------------------------------------------------------|
B|-------------------------------------------------------------------------|
G|-12-12-12-12--8-8-8--10-10-10-10--7-7/8----------------------------------|
D|-12-12-12-12--8-8-8--10-10-10-10--7-7/8----------------------------------|
A|-10-10-10-10--6-6-6--8--8--8--8---5-5/6----------------------------------|
E|-------------------------------------------------------------------------|

(Repeate 4x)

E|------------------------------------------------------------------------|
B|----------(3 fast)----(3 Fast)-----------(3 Fast)-----(3Fast)-----------|
G|-8-8-8-8--10-10-10-10--7-7-7-7--8-8-8-8--12-12-12-12--10-10-10-10-------|
D|-8-8-8-8--10-10-10-10--7-7-7-7--8-8-8-8--12-12-12-12--10-10-10-10-------|
A|-6-6-6-6--8--8--8--8---5-5-5-5--6-6-6-6--10-10-10-10--8--8--8--8--------|
E|------------------------------------------------------------------------|



E|-------------------------------------------------------------------------|
B|-------------------------------------------------------------------------|
G|-------------------------------------------------------------------------|
D|-------------------------------------------------------------------------|
A|---6-5-6---6-5-3---6-5-6---5-6-8-----------------------------------------|
E|-8-------3-------4-------6-----------------------------------------------|



| /  slide up
| \  slide down
| h  hammer-on
| p  pull-off
| ~  vibrato
| +  harmonic
| x  Mute note
===========================================================================

Related for Grocery Store Song tab