Song name
# A B C D E F G H I J K L M N O P Q R S T U V W X Y Z

Single File - Bed Head tab

e|-------------------------------------------------------------------------------------|
B|-------------------------------------------------------------------------------------|
G|-9-9-5-4-5-4-2-4---------------------------------------------------------------------|
D|-7-7-5-5-5-5-2-2---------------------------------------------------------------------|
A|-------------------------------------------------------------------------------------|
E|-------------------------------------------------------------------------------------|

then the verse which i don't know and then comes the pre chorus at "You know you make me wanna"

e|-----------------------------------------|
B|-----------------------------------------|
G|-2-2--2-2---------------9-9-9-9-9-9-9-9--|
D|-2-2--2-2-4-4-4-4--4-4--9-9-9-9-9-9-9-9--|
A|-0-0--0-0-4-4-4-4--4-4--6-6-6-6-7-7-7-7--|
E|----------2-2-2-2--2-2-------------------|

sry folks thats all I know..not a big fan of the song but it gets stuck in your 
always you can email me at semperxfix10@yahoo.com......any requests of songs you want or any 
comments
Tap to rate this tab
# A B C D E F G H I J K L M N O P Q R S T U V W X Y Z