Song name
# A B C D E F G H I J K L M N O P Q R S T U V W X Y Z

Single File - My Best Defense tab

This one goes out to Lindsay!!

Intro:
e|--------------------------------------------------------------------------------------|
B|--------------------------------------------------------------------------------------|
G|-8---8-8-7-8---8-8--------------------------------------------------------------------|
D|-8-8-8-8-7-8-8-8-8--------------------------------------------------------------------|
A|-6-8-6-6-5-6-8-6-6--------------------------------------------------------------------|
E|---6---------6------------------------------------------------------------------------|

Verse: After "the stars are out" staccotto each note.
e|--------------------------------------------------------------------------------------|
B|--6-6-8-6-8-6-8-6-6-------------------------------------------------------------------|
G|--------------------------------------------------------------------------------------|
D|--------------------------------------------------------------------------------------|
A|--------------------------------------------------------------------------------------|
E|--------------------------------------------------------------------------------------|

e|-----------------------------|
B|-----------------------------|
G|-8---8-8---------------------|
D|-8-8-8-8-8-1010101010101010--|
A|-6-8-6-6-8-1010101010101010--|
E|---6-----6-8-8-8-8-8-8-8-8---|

Chorus:
e|---------------------------------------------------------------------|
B|---------------------------------------------------------------------|
G|-8----10----13----7----8----10---13----12-----8-7-8-10-8-7-8-7-8-10--|
D|-X-X4-X--X8-X--X2-X-X2-X-X4-X-X8-X--X2-X--X2-------------------------|
A|-6----8-----11----5----6----8----11----10----------------------------|
E|---------------------------------------------------------------------|

last time play this:
e|------------------------------------------------------------------------------------|
B|------------------------------------------------------------------------------------|
G|--8-7-8-10-8-7----------------------------------------------------------------------|
D|----------------10-8----------------------------------------------------------------|
A|------------------------------------------------------------------------------------|
E|------------------------------------------------------------------------------------|

e|--------------------------------------------------------------------|
B|--------------------------------------------------------------------|
G|-8-8-8-8-8-8-8-8----------------------------------------------------|
D|-8-8-8-8-8-8-8-8-8-8-8-8-8-8-8-8--1010101010101010-8-8-8-8-8-8-8-8--|
A|-6-6-6-6-6-6-6-6-8-8-8-8-8-8-8-8--1010101010101010-8-8-8-8-8-8-8-8--|
E|-----------------6-6-6-6-6-6-6-6--8-8-8-8-8-8-8-8--6-6-6-6-6-6-6-6--|
pm....................................................................

e|------------------------------------------------------------------|
B|------------------------------------------------------------------|
G|-8-8-8-8-8-8-8-8---------8-8-8-8----------------------------------|
D|-8-8-8-8-8-8-8-8-8-8-8-8-X-X-X-X--10101010101010-8-8-8-8-8-8-8-8--|
A|-6-6-6-6-6-6-6-6-8-8-8-8-6-6-6-6--10101010101010-8-8-8-8-8-8-8-8--|
E|-----------------6-6-6-6----------8-8-8-8-8-8-8--6-6-6-6-6-6-6-6--|
pm........................          ..............................

e|--------------------------------------|
B|--------------------------------------|
G|-8-8-8-8-8-8-8---------8-8-8-8--------|
D|-8-8-8-8-8-8-8-8-8-8-8-X-X-X-X--1010--|
A|-6-6-6-6-6-6-6-8-8-8-8-6-6-6-6--1010--|
E|---------------6-6-6-6----------8-8---|
pm......................
e|------------------------------------------------------------|
B|------------------------------------------------------------|
G|-8-8-8-8-8-8-8-8-8-8-8-8-8-8-8-8-8-8-8-8--------------------|
D|-X-X-X-X-X-X-X-X-X-X-X-X-X-X-X-X-X-X-X-X--1010101010101010--|
A|-6-6-6-6-6-6-6-6-6-6-6-6-6-6-6-6-6-6-6-6--1010101010101010--|
E|-------------------------------------------8-8-8-8-8-8-8-8--|

Repeat chorus, end on:

e|---------------------------------------------------------------------------------|
B|---------------------------------------------------------------------------------|
G|---------------------------------------------------------------------------------|
D|3-3-3-3--------------------------------------------------------------------------|
A|3-3-3-3--------------------------------------------------------------------------|
E|1-1-1-1--------------------------------------------------------------------------|

Any questions, comments, or any requests, email me at Semperxfix10@yahoo.com
Tap to rate this tab
 
# A B C D E F G H I J K L M N O P Q R S T U V W X Y Z