Song name
# A B C D E F G H I J K L M N O P Q R S T U V W X Y Z

Single File - Zombies Ate My Neighbors tab

-------------------------------------------------------------------------------
			     Zombies Ate My Neighbors - Single File
-------------------------------------------------------------------------------
Tabbed by:Mason
Email: dawizard737@aol.com

Tuning: regular EADGBe

Intro: (0:00-0:19)
        C#                G#sus4/C          B             F#/A# A6
e|----l-----------------l----------------------------------------------------------------|ll
B|--6-l-6-6-6-6-4-4-4-4-l-4-4-4-4-2-2-2-2------------------------------------------------|oll
G|--6-l-6-6-6-6-6-6-6-6-l-4-4-4-4-3-3-2-2--ll-second time strum B and F#/A# chords once--|
D|--6-l-6-6-6-6-6-6-6-6-l-4-4-4-4-4-4-4-4------------------------------------------------|ll
A   l-4-l-4-4-4-4-3-3-3-3-l-2-2-2-2-1-1-0-0----------------------------------------------|oll
E   |---l-----------------l------------------ll------------------------------------------|

Use Intro for Chorus

Verse 1:
e|--------------------------------------------------|
B|--------------------------------------------------|
G|-----6-6------------------------------------------|
D|-----x-x-on beat 2 and 4 of every measure (so, 16-| times?)
A|-----4-4------------------------------------------|
E|--------------------------------------------------|

---CHORUS--- w/slide down on last chord

Verse 2: A little trickier...
   C#        G#sus4/C          F#/A#        G#                 A#m           F#          
       D#         G#sus4/A#
e|-----------------l-----------------l-----------------l-------------------|l
B|-6-6-6-6-4-4-4-4-l-2-2-2-2---------l-2-2-2-2---------l-8-8-8-8-4-4-4-4---|l
G|-6-6-6-6-6-6-6-6-l-3-3-3-3-5-5-5-5-l-3-3-3-3-3-3-3-3-l-8-8-8-8-6-6-6-6---|l
D|-6-6-6-6-6-6-6-6-l-4-4-4-4-6-6-6-6-l-3-3-3-3-4-4-4-4-l-8-8-8-8-6-6-6-6---|
A|-4-4-4-4-3-3-3-3-l-1-1-1-1-6-6-6-6-l-1-1-1-1-4-4-4-4-l-6-6-6-6-3-3-3-3---|l
El-----------------l---------4-4-4-4-l---------2-2-2-2-l-------------------|l
          C#               F                F#              G#       A#m            F#   
          D#          G#sus4/C
e|-------------------------------------------------------------|
B|---6---6-------------------------2-2-2-2-----------------4---|
G|---6---6---2---2---3---3---5---5-3-3-3-3-3-3-3-3-8-8-8-8-6---|l
D|---6---6---3---3---4---4---6---6-3-3-3-3-4-4-4-4-8-8-8-8-6---|
A|---4---4---3---3---4---4---6---6-1-1-1-1-4-4-4-4-6-6-6-6-3---|
E|-----------1---1---2---2---4---4---------2-2-2-2-------------|

---CHORUS---

Bridge?
e|---------------------------------------------------------------------------|ll
B|---------------------------------------------------------------------------|oll
G|---------------------------------------------------------------------------|ll
D|----------------------------------ll X4 last time flanger on 4-4-6-6-4-4-4-|
A|-9-9-9-8-8-8-6-6-4-4-4-6-6-4-4-4-------------------------------------------|oll
E|---------------------------------------------------------------------------|ll
P.M.-------------------------------------------------------------------------|l

w/doot doot\'s
e|-------------------------------|ll
B|---------------------------l---|
G|---------------------------l---| X4
D|-----4-----------4-------------|ll w/ flanger
A|--4-----8--6--4-----8--6---l---|
E|----4--4--4--4--4--4--4--4-l---|

verse 3:
e|--------------------------------------|
B|--------------------------------------|
G|--------------------------------------|
D|--3----------------------------------1|
A|-------0----1----3----4----1----4-----|
E|--------------------------------------|

---CHORUS one more time---

and the stinger... x4666x

How the song goes:

Intro
Verse 1
Chorus
Verse 2
Bridge
Verse 3
Chorus
Chorus again, then stinger.

Have fun, play it a lot...

| /  slide up
| \\  slide down
| h  hammer-on
| p  pull-off
| ~  vibrato
| +  harmonic
| x  Mute note
===============================================================================
Tap to rate this tab
# A B C D E F G H I J K L M N O P Q R S T U V W X Y Z